ISO-10303-21;
HEADER;
FILE_DESCRIPTION (( 'STEP AP203' ),
    '1' );
FILE_NAME ('Web Model 11901_11901.step',
    '2019-04-22T14:56:27',
    ( '' ),
    ( '' ),
    'SwSTEP 2.0',
    'SolidWorks 2018',
    '' );
FILE_SCHEMA (( 'CONFIG_CONTROL_DESIGN' ));
ENDSEC;

DATA;
#1 = PERSON_AND_ORGANIZATION ( #64, #215 ) ;
#2 = ORIENTED_EDGE ( 'NONE', *, *, #268, .F. ) ;
#3 = CARTESIAN_POINT ( 'NONE',  ( 1.000000000000000000, 0.0000000000000000000, 12.45000000000000284 ) ) ;
#4 = ORIENTED_EDGE ( 'NONE', *, *, #121, .T. ) ;
#5 = CARTESIAN_POINT ( 'NONE',  ( -1.000000000000000000, 0.0000000000000000000, 0.0000000000000000000 ) ) ;
#6 = DIRECTION ( 'NONE',  ( 0.0000000000000000000, 0.0000000000000000000, -1.000000000000000000 ) ) ;
#7 = CARTESIAN_POINT ( 'NONE',  ( 1.000000000000000000, 0.0000000000000000000, 12.50000000000000000 ) ) ;
#8 = ADVANCED_FACE ( 'NONE', ( #25 ), #46, .F. ) ;
#9 = APPROVAL_PERSON_ORGANIZATION ( #63, #223, #240 ) ;
#10 = CIRCLE ( 'NONE', #88, 12.45000000000000284 ) ;
#11 = EDGE_CURVE ( 'NONE', #80, #122, #31, .T. ) ;
#12 = CARTESIAN_POINT ( 'NONE',  ( 1.000000000000000000, 0.0000000000000000000, 12.45000000000000284 ) ) ;
#13 = DIRECTION ( 'NONE',  ( 0.0000000000000000000, 0.0000000000000000000, 1.000000000000000000 ) ) ;
#14 = EDGE_LOOP ( 'NONE', ( #229, #45 ) ) ;
#15 = LOCAL_TIME ( 10, 56, 27.00000000000000000, #224 ) ;
#16 = ORIENTED_EDGE ( 'NONE', *, *, #114, .F. ) ;
#17 = DIRECTION ( 'NONE',  ( 1.000000000000000000, 0.0000000000000000000, 0.0000000000000000000 ) ) ;
#18 = EDGE_CURVE ( 'NONE', #197, #160, #190, .T. ) ;
#19 = CARTESIAN_POINT ( 'NONE',  ( 0.0000000000000000000, 0.0000000000000000000, 0.0000000000000000000 ) ) ;
#20 = EDGE_CURVE ( 'NONE', #122, #80, #10, .T. ) ;
#21 = ORIENTED_EDGE ( 'NONE', *, *, #260, .T. ) ;
#22 = ORIENTED_EDGE ( 'NONE', *, *, #256, .T. ) ;
#23 = LINE ( 'NONE', #7, #60 ) ;
#24 = PRODUCT ( 'Web Model 11901_11901', 'Web Model 11901_11901', '', ( #206 ) ) ;
#25 = FACE_OUTER_BOUND ( 'NONE', #221, .T. ) ;
#26 = VECTOR ( 'NONE', #39, 1000.000000000000000 ) ;
#27 = DESIGN_CONTEXT ( 'detailed design', #251, 'design' ) ;
#28 = ORIENTED_EDGE ( 'NONE', *, *, #11, .F. ) ;
#29 = DIRECTION ( 'NONE',  ( -1.000000000000000000, 0.0000000000000000000, 0.0000000000000000000 ) ) ;
#30 = AXIS2_PLACEMENT_3D ( 'NONE', #52, #112, #142 ) ;
#31 = CIRCLE ( 'NONE', #30, 12.45000000000000284 ) ;
#32 = CARTESIAN_POINT ( 'NONE',  ( -0.9499999999999968470, 0.0000000000000000000, 0.0000000000000000000 ) ) ;
#33 = DATE_TIME_ROLE ( 'creation_date' ) ;
#34 = COORDINATED_UNIVERSAL_TIME_OFFSET ( 5, 0, .BEHIND. ) ;
#35 = DIRECTION ( 'NONE',  ( 0.0000000000000000000, 0.0000000000000000000, -1.000000000000000000 ) ) ;
#36 = CARTESIAN_POINT ( 'NONE',  ( 1.000000000000000000, 0.0000000000000000000, 0.0000000000000000000 ) ) ;
#37 = APPROVAL_DATE_TIME ( #129, #223 ) ;
#38 = VECTOR ( 'NONE', #180, 1000.000000000000000 ) ;
#39 = DIRECTION ( 'NONE',  ( -0.7071067811865107133, 8.659560562355383988E-17, -0.7071067811865843211 ) ) ;
#40 = CIRCLE ( 'NONE', #163, 12.44999999999999929 ) ;
#41 = AXIS2_PLACEMENT_3D ( 'NONE', #36, #218, #217 ) ;
#42 = AXIS2_PLACEMENT_3D ( 'NONE', #241, #261, #6 ) ;
#43 = APPROVAL_PERSON_ORGANIZATION ( #238, #200, #185 ) ;
#44 = VERTEX_POINT ( 'NONE', #68 ) ;
#45 = ORIENTED_EDGE ( 'NONE', *, *, #11, .T. ) ;
#46 = PLANE ( 'NONE',  #79 ) ;
#47 = EDGE_CURVE ( 'NONE', #104, #44, #272, .T. ) ;
#48 = PRODUCT_DEFINITION_SHAPE ( 'NONE', 'NONE',  #243 ) ;
#49 = EDGE_LOOP ( 'NONE', ( #134, #245, #22, #110 ) ) ;
#50 = CARTESIAN_POINT ( 'NONE',  ( 0.9500000000000072831, 0.0000000000000000000, 0.0000000000000000000 ) ) ;
#51 = CARTESIAN_POINT ( 'NONE',  ( 1.000000000000000000, 0.0000000000000000000, 0.0000000000000000000 ) ) ;
#52 = CARTESIAN_POINT ( 'NONE',  ( 1.000000000000000000, 0.0000000000000000000, 0.0000000000000000000 ) ) ;
#53 = DIRECTION ( 'NONE',  ( 0.0000000000000000000, 0.0000000000000000000, -1.000000000000000000 ) ) ;
#54 = ORIENTED_EDGE ( 'NONE', *, *, #59, .T. ) ;
#55 = CIRCLE ( 'NONE', #205, 12.44999999999999929 ) ;
#56 = AXIS2_PLACEMENT_3D ( 'NONE', #32, #181, #141 ) ;
#57 = CARTESIAN_POINT ( 'NONE',  ( -1.000000000000000000, 1.527746881936322985E-15, 12.44999999999999929 ) ) ;
#58 = LINE ( 'NONE', #12, #154 ) ;
#59 = EDGE_CURVE ( 'NONE', #44, #160, #23, .T. ) ;
#60 = VECTOR ( 'NONE', #162, 1000.000000000000000 ) ;
#61 = DIRECTION ( 'NONE',  ( 1.000000000000000000, 0.0000000000000000000, 0.0000000000000000000 ) ) ;
#62 = CC_DESIGN_PERSON_AND_ORGANIZATION_ASSIGNMENT ( #213, #165, ( #198 ) ) ;
#63 = PERSON_AND_ORGANIZATION ( #64, #215 ) ;
#64 = PERSON ( 'UNSPECIFIED', 'UNSPECIFIED', 'UNSPECIFIED', ('UNSPECIFIED'), ('UNSPECIFIED'), ('UNSPECIFIED') ) ;
#65 = CC_DESIGN_APPROVAL ( #259, ( #243 ) ) ;
#66 = APPROVAL_DATE_TIME ( #189, #200 ) ;
#67 = FACE_OUTER_BOUND ( 'NONE', #132, .T. ) ;
#68 = CARTESIAN_POINT ( 'NONE',  ( 0.9500000000000072831, 0.0000000000000000000, 12.50000000000000000 ) ) ;
#69 = APPROVAL_STATUS ( 'not_yet_approved' ) ;
#70 = COORDINATED_UNIVERSAL_TIME_OFFSET ( 5, 0, .BEHIND. ) ;
#71 = DIRECTION ( 'NONE',  ( 1.000000000000000000, -0.0000000000000000000, -0.0000000000000000000 ) ) ;
#72 = PERSON_AND_ORGANIZATION_ROLE ( 'classification_officer' ) ;
#73 = DIRECTION ( 'NONE',  ( 0.0000000000000000000, 0.0000000000000000000, -1.000000000000000000 ) ) ;
#74 = ADVANCED_FACE ( 'NONE', ( #175 ), #176, .T. ) ;
#75 = DIRECTION ( 'NONE',  ( -0.7071067811865107133, 0.0000000000000000000, 0.7071067811865843211 ) ) ;
#76 = AXIS2_PLACEMENT_3D ( 'NONE', #120, #118, #150 ) ;
#77 = ORIENTED_EDGE ( 'NONE', *, *, #20, .F. ) ;
#78 = FACE_OUTER_BOUND ( 'NONE', #235, .T. ) ;
#79 = AXIS2_PLACEMENT_3D ( 'NONE', #195, #61, #232 ) ;
#80 = VERTEX_POINT ( 'NONE', #144 ) ;
#81 = PERSON_AND_ORGANIZATION_ROLE ( 'design_owner' ) ;
#82 = CC_DESIGN_PERSON_AND_ORGANIZATION_ASSIGNMENT ( #87, #153, ( #243 ) ) ;
#83 = FACE_OUTER_BOUND ( 'NONE', #14, .T. ) ;
#84 = CIRCLE ( 'NONE', #42, 12.50000000000000000 ) ;
#85 = CARTESIAN_POINT ( 'NONE',  ( -0.9499999999999968470, 1.530808498934191521E-15, 12.50000000000000000 ) ) ;
#86 = AXIS2_PLACEMENT_3D ( 'NONE', #152, #169, #13 ) ;
#87 = PERSON_AND_ORGANIZATION ( #64, #215 ) ;
#88 = AXIS2_PLACEMENT_3D ( 'NONE', #51, #237, #73 ) ;
#89 = DIRECTION ( 'NONE',  ( 0.0000000000000000000, 0.0000000000000000000, -1.000000000000000000 ) ) ;
#90 = DIRECTION ( 'NONE',  ( -1.000000000000000000, -0.0000000000000000000, -0.0000000000000000000 ) ) ;
#91 = COORDINATED_UNIVERSAL_TIME_OFFSET ( 5, 0, .BEHIND. ) ;
#92 = CARTESIAN_POINT ( 'NONE',  ( -0.9499999999999968470, 0.0000000000000000000, 12.50000000000000000 ) ) ;
#93 = CC_DESIGN_APPROVAL ( #200, ( #184 ) ) ;
#94 = DIRECTION ( 'NONE',  ( 0.0000000000000000000, 0.0000000000000000000, -1.000000000000000000 ) ) ;
#95 = DIRECTION ( 'NONE',  ( -1.000000000000000000, 0.0000000000000000000, 0.0000000000000000000 ) ) ;
#96 = CARTESIAN_POINT ( 'NONE',  ( -1.000000000000000000, 0.0000000000000000000, 0.0000000000000000000 ) ) ;
#97 = CC_DESIGN_DATE_AND_TIME_ASSIGNMENT ( #231, #33, ( #243 ) ) ;
#98 = CYLINDRICAL_SURFACE ( 'NONE', #86, 12.50000000000000000 ) ;
#99 = CARTESIAN_POINT ( 'NONE',  ( 0.9500000000000072831, 0.0000000000000000000, 0.0000000000000000000 ) ) ;
#100 =( NAMED_UNIT ( * ) PLANE_ANGLE_UNIT ( ) SI_UNIT ( $, .RADIAN. ) );
#101 = APPROVAL_STATUS ( 'not_yet_approved' ) ;
#102 = ORIENTED_EDGE ( 'NONE', *, *, #247, .F. ) ;
#103 = AXIS2_PLACEMENT_3D ( 'NONE', #50, #179, #117 ) ;
#104 = VERTEX_POINT ( 'NONE', #115 ) ;
#105 = CC_DESIGN_SECURITY_CLASSIFICATION ( #184, ( #198 ) ) ;
#106 = ORIENTED_EDGE ( 'NONE', *, *, #47, .T. ) ;
#107 = EDGE_LOOP ( 'NONE', ( #16, #106, #54, #4 ) ) ;
#108 = UNCERTAINTY_MEASURE_WITH_UNIT (LENGTH_MEASURE( 1.000000000000000082E-05 ), #171, 'distance_accuracy_value', 'NONE');
#109 = CC_DESIGN_APPROVAL ( #223, ( #198 ) ) ;
#110 = ORIENTED_EDGE ( 'NONE', *, *, #121, .F. ) ;
#111 = ORIENTED_EDGE ( 'NONE', *, *, #114, .T. ) ;
#112 = DIRECTION ( 'NONE',  ( 1.000000000000000000, 0.0000000000000000000, 0.0000000000000000000 ) ) ;
#113 = ADVANCED_FACE ( 'NONE', ( #226 ), #255, .T. ) ;
#114 = EDGE_CURVE ( 'NONE', #104, #194, #239, .T. ) ;
#115 = CARTESIAN_POINT ( 'NONE',  ( 0.9500000000000072831, 1.530808498934191521E-15, -12.50000000000000000 ) ) ;
#116 = CIRCLE ( 'NONE', #164, 12.50000000000000000 ) ;
#117 = DIRECTION ( 'NONE',  ( 0.0000000000000000000, 0.0000000000000000000, -1.000000000000000000 ) ) ;
#118 = DIRECTION ( 'NONE',  ( -1.000000000000000000, -0.0000000000000000000, -0.0000000000000000000 ) ) ;
#119 = DATE_TIME_ROLE ( 'classification_date' ) ;
#120 = CARTESIAN_POINT ( 'NONE',  ( 1.000000000000000000, 0.0000000000000000000, 0.0000000000000000000 ) ) ;
#121 = EDGE_CURVE ( 'NONE', #160, #194, #116, .T. ) ;
#122 = VERTEX_POINT ( 'NONE', #3 ) ;
#123 = DIRECTION ( 'NONE',  ( 0.0000000000000000000, 0.0000000000000000000, -1.000000000000000000 ) ) ;
#124 = CALENDAR_DATE ( 2019, 22, 4 ) ;
#125 = ORIENTED_EDGE ( 'NONE', *, *, #155, .F. ) ;
#126 = DIRECTION ( 'NONE',  ( 0.7071067811865597852, 0.0000000000000000000, -0.7071067811865352493 ) ) ;
#127 = CARTESIAN_POINT ( 'NONE',  ( 1.000000000000000000, 1.524685264938455237E-15, -12.45000000000000284 ) ) ;
#128 = DATE_AND_TIME ( #158, #170 ) ;
#129 = DATE_AND_TIME ( #174, #15 ) ;
#130 = ORIENTED_EDGE ( 'NONE', *, *, #155, .T. ) ;
#131 = APPLICATION_CONTEXT ( 'configuration controlled 3d designs of mechanical parts and assemblies' ) ;
#132 = EDGE_LOOP ( 'NONE', ( #209, #111, #130, #270 ) ) ;
#133 = CALENDAR_DATE ( 2019, 22, 4 ) ;
#134 = ORIENTED_EDGE ( 'NONE', *, *, #18, .F. ) ;
#135 = AXIS2_PLACEMENT_3D ( 'NONE', #99, #95, #123 ) ;
#136 = ORIENTED_EDGE ( 'NONE', *, *, #268, .T. ) ;
#137 = EDGE_CURVE ( 'NONE', #197, #210, #55, .T. ) ;
#138 = ORIENTED_EDGE ( 'NONE', *, *, #137, .T. ) ;
#139 = CONICAL_SURFACE ( 'NONE', #56, 12.50000000000000000, 0.7853981633974309595 ) ;
#140 = AXIS2_PLACEMENT_3D ( 'NONE', #216, #29, #199 ) ;
#141 = DIRECTION ( 'NONE',  ( 0.0000000000000000000, 0.0000000000000000000, -1.000000000000000000 ) ) ;
#142 = DIRECTION ( 'NONE',  ( 0.0000000000000000000, 0.0000000000000000000, -1.000000000000000000 ) ) ;
#143 = DATE_AND_TIME ( #124, #192 ) ;
#144 = CARTESIAN_POINT ( 'NONE',  ( 1.000000000000000000, 1.527746881936323379E-15, -12.45000000000000284 ) ) ;
#145 = DIRECTION ( 'NONE',  ( 0.0000000000000000000, 0.0000000000000000000, -1.000000000000000000 ) ) ;
#146 =( GEOMETRIC_REPRESENTATION_CONTEXT ( 3 ) GLOBAL_UNCERTAINTY_ASSIGNED_CONTEXT ( ( #108 ) ) GLOBAL_UNIT_ASSIGNED_CONTEXT ( ( #171, #100, #191 ) ) REPRESENTATION_CONTEXT ( 'NONE', 'WORKASPACE' ) );
#147 = CARTESIAN_POINT ( 'NONE',  ( 1.000000000000000000, 0.0000000000000000000, 0.0000000000000000000 ) ) ;
#148 = PERSON_AND_ORGANIZATION ( #64, #215 ) ;
#149 = MANIFOLD_SOLID_BREP ( '11877-1-solid1', #187 ) ;
#150 = DIRECTION ( 'NONE',  ( 0.0000000000000000000, 0.0000000000000000000, 1.000000000000000000 ) ) ;
#151 = CC_DESIGN_PERSON_AND_ORGANIZATION_ASSIGNMENT ( #177, #202, ( #198 ) ) ;
#152 = CARTESIAN_POINT ( 'NONE',  ( 1.000000000000000000, 0.0000000000000000000, 0.0000000000000000000 ) ) ;
#153 = PERSON_AND_ORGANIZATION_ROLE ( 'creator' ) ;
#154 = VECTOR ( 'NONE', #75, 1000.000000000000000 ) ;
#155 = EDGE_CURVE ( 'NONE', #194, #160, #84, .T. ) ;
#156 = DIRECTION ( 'NONE',  ( 0.0000000000000000000, 0.0000000000000000000, 1.000000000000000000 ) ) ;
#157 = APPROVAL_ROLE ( '' ) ;
#158 = CALENDAR_DATE ( 2019, 22, 4 ) ;
#159 = AXIS2_PLACEMENT_3D ( 'NONE', #263, #211, #89 ) ;
#160 = VERTEX_POINT ( 'NONE', #92 ) ;
#161 = PRODUCT_RELATED_PRODUCT_CATEGORY ( 'detail', '', ( #24 ) ) ;
#162 = DIRECTION ( 'NONE',  ( -1.000000000000000000, -0.0000000000000000000, -0.0000000000000000000 ) ) ;
#163 = AXIS2_PLACEMENT_3D ( 'NONE', #96, #246, #94 ) ;
#164 = AXIS2_PLACEMENT_3D ( 'NONE', #201, #71, #53 ) ;
#165 = PERSON_AND_ORGANIZATION_ROLE ( 'design_supplier' ) ;
#166 = ADVANCED_FACE ( 'NONE', ( #78 ), #139, .T. ) ;
#167 = EDGE_CURVE ( 'NONE', #122, #44, #58, .T. ) ;
#168 = CARTESIAN_POINT ( 'NONE',  ( -0.9499999999999968470, 1.530808498934191521E-15, -12.50000000000000000 ) ) ;
#169 = DIRECTION ( 'NONE',  ( -1.000000000000000000, -0.0000000000000000000, -0.0000000000000000000 ) ) ;
#170 = LOCAL_TIME ( 10, 56, 27.00000000000000000, #70 ) ;
#171 =( LENGTH_UNIT ( ) NAMED_UNIT ( * ) SI_UNIT ( .MILLI., .METRE. ) );
#172 = ORIENTED_EDGE ( 'NONE', *, *, #18, .T. ) ;
#173 = EDGE_LOOP ( 'NONE', ( #28, #136, #102, #233 ) ) ;
#174 = CALENDAR_DATE ( 2019, 22, 4 ) ;
#175 = FACE_OUTER_BOUND ( 'NONE', #274, .T. ) ;
#176 = CONICAL_SURFACE ( 'NONE', #140, 12.45000000000000284, 0.7853981633975003485 ) ;
#177 = PERSON_AND_ORGANIZATION ( #64, #215 ) ;
#178 = CARTESIAN_POINT ( 'NONE',  ( -1.000000000000000000, 0.0000000000000000000, -12.44999999999999929 ) ) ;
#179 = DIRECTION ( 'NONE',  ( -1.000000000000000000, 0.0000000000000000000, 0.0000000000000000000 ) ) ;
#180 = DIRECTION ( 'NONE',  ( -1.000000000000000000, -0.0000000000000000000, -0.0000000000000000000 ) ) ;
#181 = DIRECTION ( 'NONE',  ( 1.000000000000000000, -0.0000000000000000000, -0.0000000000000000000 ) ) ;
#182 = ADVANCED_FACE ( 'NONE', ( #67 ), #193, .T. ) ;
#183 = APPROVAL_DATE_TIME ( #128, #259 ) ;
#184 = SECURITY_CLASSIFICATION ( '', '', #220 ) ;
#185 = APPROVAL_ROLE ( '' ) ;
#186 = FACE_OUTER_BOUND ( 'NONE', #173, .T. ) ;
#187 = CLOSED_SHELL ( 'NONE', ( #166, #267, #182, #219, #262, #8, #74, #113 ) ) ;
#188 = VECTOR ( 'NONE', #126, 1000.000000000000000 ) ;
#189 = DATE_AND_TIME ( #133, #254 ) ;
#190 = LINE ( 'NONE', #85, #230 ) ;
#191 =( NAMED_UNIT ( * ) SI_UNIT ( $, .STERADIAN. ) SOLID_ANGLE_UNIT ( ) );
#192 = LOCAL_TIME ( 10, 56, 27.00000000000000000, #244 ) ;
#193 = CYLINDRICAL_SURFACE ( 'NONE', #76, 12.50000000000000000 ) ;
#194 = VERTEX_POINT ( 'NONE', #168 ) ;
#195 = CARTESIAN_POINT ( 'NONE',  ( -1.000000000000000000, 0.0000000000000000000, 0.0000000000000000000 ) ) ;
#196 = LOCAL_TIME ( 10, 56, 27.00000000000000000, #34 ) ;
#197 = VERTEX_POINT ( 'NONE', #57 ) ;
#198 = PRODUCT_DEFINITION_FORMATION_WITH_SPECIFIED_SOURCE ( 'ANY', '', #24, .NOT_KNOWN. ) ;
#199 = DIRECTION ( 'NONE',  ( 0.0000000000000000000, 0.0000000000000000000, 1.000000000000000000 ) ) ;
#200 = APPROVAL ( #214, 'UNSPECIFIED' ) ;
#201 = CARTESIAN_POINT ( 'NONE',  ( -0.9499999999999968470, 0.0000000000000000000, 0.0000000000000000000 ) ) ;
#202 = PERSON_AND_ORGANIZATION_ROLE ( 'creator' ) ;
#203 = APPROVAL_PERSON_ORGANIZATION ( #1, #259, #157 ) ;
#204 = ORIENTED_EDGE ( 'NONE', *, *, #256, .F. ) ;
#205 = AXIS2_PLACEMENT_3D ( 'NONE', #5, #90, #145 ) ;
#206 = MECHANICAL_CONTEXT ( 'NONE', #131, 'mechanical' ) ;
#207 = LINE ( 'NONE', #248, #188 ) ;
#208 = CONICAL_SURFACE ( 'NONE', #41, 12.45000000000000284, 0.7853981633975003485 ) ;
#209 = ORIENTED_EDGE ( 'NONE', *, *, #247, .T. ) ;
#210 = VERTEX_POINT ( 'NONE', #178 ) ;
#211 = DIRECTION ( 'NONE',  ( 1.000000000000000000, -0.0000000000000000000, -0.0000000000000000000 ) ) ;
#212 = ORIENTED_EDGE ( 'NONE', *, *, #167, .T. ) ;
#213 = PERSON_AND_ORGANIZATION ( #64, #215 ) ;
#214 = APPROVAL_STATUS ( 'not_yet_approved' ) ;
#215 = ORGANIZATION ( 'UNSPECIFIED', 'UNSPECIFIED', '' ) ;
#216 = CARTESIAN_POINT ( 'NONE',  ( 1.000000000000000000, 0.0000000000000000000, 0.0000000000000000000 ) ) ;
#217 = DIRECTION ( 'NONE',  ( 0.0000000000000000000, 0.0000000000000000000, 1.000000000000000000 ) ) ;
#218 = DIRECTION ( 'NONE',  ( -1.000000000000000000, 0.0000000000000000000, 0.0000000000000000000 ) ) ;
#219 = ADVANCED_FACE ( 'NONE', ( #275 ), #98, .T. ) ;
#220 = SECURITY_CLASSIFICATION_LEVEL ( 'unclassified' ) ;
#221 = EDGE_LOOP ( 'NONE', ( #21, #138 ) ) ;
#222 = CC_DESIGN_PERSON_AND_ORGANIZATION_ASSIGNMENT ( #269, #72, ( #184 ) ) ;
#223 = APPROVAL ( #69, 'UNSPECIFIED' ) ;
#224 = COORDINATED_UNIVERSAL_TIME_OFFSET ( 5, 0, .BEHIND. ) ;
#225 = DIRECTION ( 'NONE',  ( 1.000000000000000000, 0.0000000000000000000, 0.0000000000000000000 ) ) ;
#226 = FACE_OUTER_BOUND ( 'NONE', #49, .T. ) ;
#227 = APPLICATION_PROTOCOL_DEFINITION ( 'international standard', 'config_control_design', 1994, #251 ) ;
#228 = AXIS2_PLACEMENT_3D ( 'NONE', #19, #156, #225 ) ;
#229 = ORIENTED_EDGE ( 'NONE', *, *, #20, .T. ) ;
#230 = VECTOR ( 'NONE', #257, 1000.000000000000000 ) ;
#231 = DATE_AND_TIME ( #252, #196 ) ;
#232 = DIRECTION ( 'NONE',  ( 0.0000000000000000000, 0.0000000000000000000, -1.000000000000000000 ) ) ;
#233 = ORIENTED_EDGE ( 'NONE', *, *, #167, .F. ) ;
#234 = ADVANCED_BREP_SHAPE_REPRESENTATION ( 'Web Model 11901_11901', ( #149, #228 ), #146 ) ;
#235 = EDGE_LOOP ( 'NONE', ( #258, #172, #125, #204 ) ) ;
#236 = CC_DESIGN_DATE_AND_TIME_ASSIGNMENT ( #143, #119, ( #184 ) ) ;
#237 = DIRECTION ( 'NONE',  ( 1.000000000000000000, 0.0000000000000000000, 0.0000000000000000000 ) ) ;
#238 = PERSON_AND_ORGANIZATION ( #64, #215 ) ;
#239 = LINE ( 'NONE', #264, #38 ) ;
#240 = APPROVAL_ROLE ( '' ) ;
#241 = CARTESIAN_POINT ( 'NONE',  ( -0.9499999999999968470, 0.0000000000000000000, 0.0000000000000000000 ) ) ;
#242 = PLANE ( 'NONE',  #273 ) ;
#243 = PRODUCT_DEFINITION ( 'UNKNOWN', '', #198, #27 ) ;
#244 = COORDINATED_UNIVERSAL_TIME_OFFSET ( 5, 0, .BEHIND. ) ;
#245 = ORIENTED_EDGE ( 'NONE', *, *, #260, .F. ) ;
#246 = DIRECTION ( 'NONE',  ( -1.000000000000000000, -0.0000000000000000000, -0.0000000000000000000 ) ) ;
#247 = EDGE_CURVE ( 'NONE', #44, #104, #250, .T. ) ;
#248 = CARTESIAN_POINT ( 'NONE',  ( -0.9499999999999968470, 0.0000000000000000000, -12.50000000000000000 ) ) ;
#249 = LINE ( 'NONE', #127, #26 ) ;
#250 = CIRCLE ( 'NONE', #135, 12.50000000000000000 ) ;
#251 = APPLICATION_CONTEXT ( 'configuration controlled 3d designs of mechanical parts and assemblies' ) ;
#252 = CALENDAR_DATE ( 2019, 22, 4 ) ;
#253 = CC_DESIGN_PERSON_AND_ORGANIZATION_ASSIGNMENT ( #148, #81, ( #24 ) ) ;
#254 = LOCAL_TIME ( 10, 56, 27.00000000000000000, #91 ) ;
#255 = CONICAL_SURFACE ( 'NONE', #159, 12.50000000000000000, 0.7853981633974309595 ) ;
#256 = EDGE_CURVE ( 'NONE', #210, #194, #207, .T. ) ;
#257 = DIRECTION ( 'NONE',  ( 0.7071067811865597852, 8.659560562354782482E-17, 0.7071067811865352493 ) ) ;
#258 = ORIENTED_EDGE ( 'NONE', *, *, #137, .F. ) ;
#259 = APPROVAL ( #101, 'UNSPECIFIED' ) ;
#260 = EDGE_CURVE ( 'NONE', #210, #197, #40, .T. ) ;
#261 = DIRECTION ( 'NONE',  ( 1.000000000000000000, -0.0000000000000000000, -0.0000000000000000000 ) ) ;
#262 = ADVANCED_FACE ( 'NONE', ( #83 ), #242, .T. ) ;
#263 = CARTESIAN_POINT ( 'NONE',  ( -0.9499999999999968470, 0.0000000000000000000, 0.0000000000000000000 ) ) ;
#264 = CARTESIAN_POINT ( 'NONE',  ( 1.000000000000000000, 1.530808498934191521E-15, -12.50000000000000000 ) ) ;
#265 = SHAPE_DEFINITION_REPRESENTATION ( #48, #234 ) ;
#266 = ORIENTED_EDGE ( 'NONE', *, *, #47, .F. ) ;
#267 = ADVANCED_FACE ( 'NONE', ( #186 ), #208, .T. ) ;
#268 = EDGE_CURVE ( 'NONE', #80, #104, #249, .T. ) ;
#269 = PERSON_AND_ORGANIZATION ( #64, #215 ) ;
#270 = ORIENTED_EDGE ( 'NONE', *, *, #59, .F. ) ;
#271 = APPLICATION_PROTOCOL_DEFINITION ( 'international standard', 'config_control_design', 1994, #131 ) ;
#272 = CIRCLE ( 'NONE', #103, 12.50000000000000000 ) ;
#273 = AXIS2_PLACEMENT_3D ( 'NONE', #147, #17, #35 ) ;
#274 = EDGE_LOOP ( 'NONE', ( #2, #77, #212, #266 ) ) ;
#275 = FACE_OUTER_BOUND ( 'NONE', #107, .T. ) ;
ENDSEC;
END-ISO-10303-21;
