ISO-10303-21;
HEADER;
FILE_DESCRIPTION (( 'STEP AP203' ),
    '1' );
FILE_NAME ('Web Model 11539_11539.step',
    '2019-12-17T13:42:49',
    ( '' ),
    ( '' ),
    'SwSTEP 2.0',
    'SolidWorks 2018',
    '' );
FILE_SCHEMA (( 'CONFIG_CONTROL_DESIGN' ));
ENDSEC;

DATA;
#1 = AXIS2_PLACEMENT_3D ( 'NONE', #36, #252, #75 ) ;
#2 = DIRECTION ( 'NONE',  ( 1.000000000000000000, 0.0000000000000000000, 0.0000000000000000000 ) ) ;
#3 = VECTOR ( 'NONE', #163, 1000.000000000000000 ) ;
#4 = ORIENTED_EDGE ( 'NONE', *, *, #251, .T. ) ;
#5 = APPROVAL ( #197, 'UNSPECIFIED' ) ;
#6 = DIRECTION ( 'NONE',  ( -1.000000000000000000, 0.0000000000000000000, 0.0000000000000000000 ) ) ;
#7 = VECTOR ( 'NONE', #69, 1000.000000000000114 ) ;
#8 = ORIENTED_EDGE ( 'NONE', *, *, #164, .T. ) ;
#9 = CARTESIAN_POINT ( 'NONE',  ( -0.5000000000000000000, -25.00000000000000000, 0.0000000000000000000 ) ) ;
#10 = COORDINATED_UNIVERSAL_TIME_OFFSET ( 5, 0, .BEHIND. ) ;
#11 = ORIENTED_EDGE ( 'NONE', *, *, #138, .T. ) ;
#12 = CC_DESIGN_APPROVAL ( #5, ( #50 ) ) ;
#13 = DIRECTION ( 'NONE',  ( 0.0000000000000000000, 1.000000000000000000, 0.0000000000000000000 ) ) ;
#14 = DIRECTION ( 'NONE',  ( 0.7071067811864980568, -0.7071067811865969777, 0.0000000000000000000 ) ) ;
#15 = CYLINDRICAL_SURFACE ( 'NONE', #86, 25.00000000000000000 ) ;
#16 = ADVANCED_FACE ( 'NONE', ( #198 ), #213, .T. ) ;
#17 = CC_DESIGN_PERSON_AND_ORGANIZATION_ASSIGNMENT ( #277, #176, ( #288 ) ) ;
#18 = PERSON_AND_ORGANIZATION ( #73, #87 ) ;
#19 = DIRECTION ( 'NONE',  ( 0.0000000000000000000, 1.000000000000000000, 0.0000000000000000000 ) ) ;
#20 = EDGE_CURVE ( 'NONE', #54, #214, #155, .T. ) ;
#21 = CARTESIAN_POINT ( 'NONE',  ( -9.954852206891999344, 0.0000000000000000000, 0.0000000000000000000 ) ) ;
#22 = APPROVAL ( #60, 'UNSPECIFIED' ) ;
#23 = SPHERICAL_SURFACE ( 'NONE', #247, 398.8300000000000409 ) ;
#24 = CARTESIAN_POINT ( 'NONE',  ( -0.5000000000000000000, -25.00000000000000000, 0.0000000000000000000 ) ) ;
#25 = DIRECTION ( 'NONE',  ( 0.0000000000000000000, -1.000000000000000000, 0.0000000000000000000 ) ) ;
#26 = CALENDAR_DATE ( 2019, 17, 12 ) ;
#27 = DIRECTION ( 'NONE',  ( 0.0000000000000000000, 1.000000000000000000, 0.0000000000000000000 ) ) ;
#28 = FACE_OUTER_BOUND ( 'NONE', #122, .T. ) ;
#29 = DIRECTION ( 'NONE',  ( 0.0000000000000000000, 0.0000000000000000000, -1.000000000000000000 ) ) ;
#30 = CONICAL_SURFACE ( 'NONE', #71, 24.75000000000000000, 0.7853981633972997312 ) ;
#31 = ORIENTED_EDGE ( 'NONE', *, *, #226, .T. ) ;
#32 =( NAMED_UNIT ( * ) SI_UNIT ( $, .STERADIAN. ) SOLID_ANGLE_UNIT ( ) );
#33 = UNCERTAINTY_MEASURE_WITH_UNIT (LENGTH_MEASURE( 1.000000000000000082E-05 ), #118, 'distance_accuracy_value', 'NONE');
#34 = APPLICATION_CONTEXT ( 'configuration controlled 3d designs of mechanical parts and assemblies' ) ;
#35 = DATE_TIME_ROLE ( 'classification_date' ) ;
#36 = CARTESIAN_POINT ( 'NONE',  ( 0.0000000000000000000, 0.0000000000000000000, 0.0000000000000000000 ) ) ;
#37 = COORDINATED_UNIVERSAL_TIME_OFFSET ( 5, 0, .BEHIND. ) ;
#38 = LINE ( 'NONE', #127, #7 ) ;
#39 = CC_DESIGN_PERSON_AND_ORGANIZATION_ASSIGNMENT ( #18, #55, ( #278 ) ) ;
#40 = ORIENTED_EDGE ( 'NONE', *, *, #20, .T. ) ;
#41 = CARTESIAN_POINT ( 'NONE',  ( -0.5000000000000000000, -25.00000000000000000, 0.0000000000000000000 ) ) ;
#42 = EDGE_CURVE ( 'NONE', #214, #191, #274, .T. ) ;
#43 = DIRECTION ( 'NONE',  ( 0.0000000000000000000, 0.0000000000000000000, 1.000000000000000000 ) ) ;
#44 = CARTESIAN_POINT ( 'NONE',  ( -10.32985220689000094, 0.0000000000000000000, 0.0000000000000000000 ) ) ;
#45 = VECTOR ( 'NONE', #6, 1000.000000000000000 ) ;
#46 = DIRECTION ( 'NONE',  ( 1.000000000000000000, 0.0000000000000000000, 0.0000000000000000000 ) ) ;
#47 = ORIENTED_EDGE ( 'NONE', *, *, #167, .T. ) ;
#48 = DIRECTION ( 'NONE',  ( 0.0000000000000000000, 1.000000000000000000, 0.0000000000000000000 ) ) ;
#49 = ORIENTED_EDGE ( 'NONE', *, *, #216, .T. ) ;
#50 = SECURITY_CLASSIFICATION ( '', '', #200 ) ;
#51 = DIRECTION ( 'NONE',  ( -1.000000000000000000, 0.0000000000000000000, 0.0000000000000000000 ) ) ;
#52 = CALENDAR_DATE ( 2019, 17, 12 ) ;
#53 = CIRCLE ( 'NONE', #57, 24.50000000000000000 ) ;
#54 = VERTEX_POINT ( 'NONE', #283 ) ;
#55 = PERSON_AND_ORGANIZATION_ROLE ( 'design_supplier' ) ;
#56 = ADVANCED_BREP_SHAPE_REPRESENTATION ( 'Web Model 11539_11539', ( #84, #1 ), #113 ) ;
#57 = AXIS2_PLACEMENT_3D ( 'NONE', #91, #264, #126 ) ;
#58 = AXIS2_PLACEMENT_3D ( 'NONE', #192, #89, #48 ) ;
#59 = VERTEX_POINT ( 'NONE', #41 ) ;
#60 = APPROVAL_STATUS ( 'not_yet_approved' ) ;
#61 = APPROVAL_PERSON_ORGANIZATION ( #159, #231, #179 ) ;
#62 = FACE_OUTER_BOUND ( 'NONE', #74, .T. ) ;
#63 = CC_DESIGN_SECURITY_CLASSIFICATION ( #50, ( #278 ) ) ;
#64 = CLOSED_SHELL ( 'NONE', ( #242, #16, #239, #168, #265, #269, #146, #149, #263 ) ) ;
#65 = PERSON_AND_ORGANIZATION ( #73, #87 ) ;
#66 = CC_DESIGN_DATE_AND_TIME_ASSIGNMENT ( #224, #177, ( #288 ) ) ;
#67 = DIRECTION ( 'NONE',  ( 1.000000000000000000, 0.0000000000000000000, 0.0000000000000000000 ) ) ;
#68 = VECTOR ( 'NONE', #14, 1000.000000000000000 ) ;
#69 = DIRECTION ( 'NONE',  ( -0.5000000000000169864, 0.8660254037844288266, 0.0000000000000000000 ) ) ;
#70 = DIRECTION ( 'NONE',  ( 1.000000000000000000, 0.0000000000000000000, 0.0000000000000000000 ) ) ;
#71 = AXIS2_PLACEMENT_3D ( 'NONE', #129, #290, #108 ) ;
#72 = AXIS2_PLACEMENT_3D ( 'NONE', #44, #46, #190 ) ;
#73 = PERSON ( 'UNSPECIFIED', 'UNSPECIFIED', 'UNSPECIFIED', ('UNSPECIFIED'), ('UNSPECIFIED'), ('UNSPECIFIED') ) ;
#74 = EDGE_LOOP ( 'NONE', ( #49, #161, #81, #8 ) ) ;
#75 = DIRECTION ( 'NONE',  ( 1.000000000000000000, 0.0000000000000000000, 0.0000000000000000000 ) ) ;
#76 = APPLICATION_PROTOCOL_DEFINITION ( 'international standard', 'config_control_design', 1994, #34 ) ;
#77 = CIRCLE ( 'NONE', #196, 24.50000000000000000 ) ;
#78 = MECHANICAL_CONTEXT ( 'NONE', #276, 'mechanical' ) ;
#79 = CALENDAR_DATE ( 2019, 17, 12 ) ;
#80 = PRODUCT_RELATED_PRODUCT_CATEGORY ( 'detail', '', ( #220 ) ) ;
#81 = ORIENTED_EDGE ( 'NONE', *, *, #117, .F. ) ;
#82 = CARTESIAN_POINT ( 'NONE',  ( -0.5000000000000000000, 25.00000000000000000, 0.0000000000000000000 ) ) ;
#83 = SPHERICAL_SURFACE ( 'NONE', #256, 398.8300000000000409 ) ;
#84 = MANIFOLD_SOLID_BREP ( 'Web Model 11539.stp', #64 ) ;
#85 = ORIENTED_EDGE ( 'NONE', *, *, #138, .F. ) ;
#86 = AXIS2_PLACEMENT_3D ( 'NONE', #221, #2, #248 ) ;
#87 = ORGANIZATION ( 'UNSPECIFIED', 'UNSPECIFIED', '' ) ;
#88 = CIRCLE ( 'NONE', #260, 23.70096189431999889 ) ;
#89 = DIRECTION ( 'NONE',  ( -1.000000000000000000, 0.0000000000000000000, 0.0000000000000000000 ) ) ;
#90 = CARTESIAN_POINT ( 'NONE',  ( 0.0000000000000000000, 24.50000000000000000, 0.0000000000000000000 ) ) ;
#91 = CARTESIAN_POINT ( 'NONE',  ( 0.0000000000000000000, 0.0000000000000000000, 0.0000000000000000000 ) ) ;
#92 = CALENDAR_DATE ( 2019, 17, 12 ) ;
#93 = CONICAL_SURFACE ( 'NONE', #72, 24.35048094716000122, 1.047197551196400456 ) ;
#94 = DIRECTION ( 'NONE',  ( 0.0000000000000000000, -1.000000000000000000, 0.0000000000000000000 ) ) ;
#95 = ORIENTED_EDGE ( 'NONE', *, *, #20, .F. ) ;
#96 = DATE_AND_TIME ( #130, #259 ) ;
#97 = CC_DESIGN_DATE_AND_TIME_ASSIGNMENT ( #285, #35, ( #50 ) ) ;
#98 = FACE_OUTER_BOUND ( 'NONE', #125, .T. ) ;
#99 = ORIENTED_EDGE ( 'NONE', *, *, #103, .F. ) ;
#100 = DIRECTION ( 'NONE',  ( 1.000000000000000000, 0.0000000000000000000, 0.0000000000000000000 ) ) ;
#101 = LOCAL_TIME ( 8, 42, 49.00000000000000000, #10 ) ;
#102 = ORIENTED_EDGE ( 'NONE', *, *, #262, .F. ) ;
#103 = EDGE_CURVE ( 'NONE', #54, #59, #106, .T. ) ;
#104 = DIRECTION ( 'NONE',  ( 0.9982327001306514624, -0.05942622644816712013, 0.0000000000000000000 ) ) ;
#105 = PERSON_AND_ORGANIZATION ( #73, #87 ) ;
#106 = CIRCLE ( 'NONE', #58, 25.00000000000000000 ) ;
#107 = EDGE_LOOP ( 'NONE', ( #282, #121, #85, #95 ) ) ;
#108 = DIRECTION ( 'NONE',  ( 0.0000000000000000000, 1.000000000000000000, 0.0000000000000000000 ) ) ;
#109 = CARTESIAN_POINT ( 'NONE',  ( 0.0000000000000000000, -24.50000000000000000, -1.088018564133000035E-14 ) ) ;
#110 = CC_DESIGN_PERSON_AND_ORGANIZATION_ASSIGNMENT ( #186, #158, ( #50 ) ) ;
#111 = LOCAL_TIME ( 8, 42, 49.00000000000000000, #212 ) ;
#112 = ORIENTED_EDGE ( 'NONE', *, *, #251, .F. ) ;
#113 =( GEOMETRIC_REPRESENTATION_CONTEXT ( 3 ) GLOBAL_UNCERTAINTY_ASSIGNED_CONTEXT ( ( #33 ) ) GLOBAL_UNIT_ASSIGNED_CONTEXT ( ( #118, #181, #32 ) ) REPRESENTATION_CONTEXT ( 'NONE', 'WORKASPACE' ) );
#114 = SHAPE_DEFINITION_REPRESENTATION ( #206, #56 ) ;
#115 = CIRCLE ( 'NONE', #174, 398.8299999999998136 ) ;
#116 = ORIENTED_EDGE ( 'NONE', *, *, #42, .T. ) ;
#117 = EDGE_CURVE ( 'NONE', #54, #230, #142, .T. ) ;
#118 =( LENGTH_UNIT ( ) NAMED_UNIT ( * ) SI_UNIT ( .MILLI., .METRE. ) );
#119 = ORIENTED_EDGE ( 'NONE', *, *, #120, .F. ) ;
#120 = EDGE_CURVE ( 'NONE', #230, #225, #53, .T. ) ;
#121 = ORIENTED_EDGE ( 'NONE', *, *, #279, .T. ) ;
#122 = EDGE_LOOP ( 'NONE', ( #116, #275, #202, #40 ) ) ;
#123 = CC_DESIGN_PERSON_AND_ORGANIZATION_ASSIGNMENT ( #201, #135, ( #278 ) ) ;
#124 = DIRECTION ( 'NONE',  ( 0.0000000000000000000, 1.000000000000000000, 0.0000000000000000000 ) ) ;
#125 = EDGE_LOOP ( 'NONE', ( #11, #47, #102, #112 ) ) ;
#126 = DIRECTION ( 'NONE',  ( 0.0000000000000000000, 1.000000000000000000, 0.0000000000000000000 ) ) ;
#127 = CARTESIAN_POINT ( 'NONE',  ( -9.954852206891999344, -25.00000000000000000, 0.0000000000000000000 ) ) ;
#128 = VECTOR ( 'NONE', #169, 1000.000000000000000 ) ;
#129 = CARTESIAN_POINT ( 'NONE',  ( -0.2500000000000000000, 0.0000000000000000000, 0.0000000000000000000 ) ) ;
#130 = CALENDAR_DATE ( 2019, 17, 12 ) ;
#131 = AXIS2_PLACEMENT_3D ( 'NONE', #173, #51, #154 ) ;
#132 = EDGE_LOOP ( 'NONE', ( #160, #133 ) ) ;
#133 = ORIENTED_EDGE ( 'NONE', *, *, #156, .T. ) ;
#134 = APPROVAL_STATUS ( 'not_yet_approved' ) ;
#135 = PERSON_AND_ORGANIZATION_ROLE ( 'creator' ) ;
#136 = AXIS2_PLACEMENT_3D ( 'NONE', #234, #100, #258 ) ;
#137 = EDGE_LOOP ( 'NONE', ( #172, #219, #175, #99 ) ) ;
#138 = EDGE_CURVE ( 'NONE', #214, #191, #166, .T. ) ;
#139 = DIRECTION ( 'NONE',  ( 1.000000000000000000, 0.0000000000000000000, 0.0000000000000000000 ) ) ;
#140 = ORIENTED_EDGE ( 'NONE', *, *, #156, .F. ) ;
#141 = LOCAL_TIME ( 8, 42, 49.00000000000000000, #37 ) ;
#142 = LINE ( 'NONE', #232, #68 ) ;
#143 = APPROVAL_DATE_TIME ( #96, #22 ) ;
#144 = DIRECTION ( 'NONE',  ( -0.5000000000000169864, -0.8660254037844288266, 0.0000000000000000000 ) ) ;
#145 = DIRECTION ( 'NONE',  ( 0.0000000000000000000, 1.000000000000000000, 0.0000000000000000000 ) ) ;
#146 = ADVANCED_FACE ( 'NONE', ( #229 ), #281, .T. ) ;
#147 = CARTESIAN_POINT ( 'NONE',  ( -9.954852206891999344, 25.00000000000000000, 0.0000000000000000000 ) ) ;
#148 = CARTESIAN_POINT ( 'NONE',  ( -9.954852206891999344, 25.00000000000000000, 0.0000000000000000000 ) ) ;
#149 = ADVANCED_FACE ( 'NONE', ( #62 ), #30, .T. ) ;
#150 = DIRECTION ( 'NONE',  ( 0.0000000000000000000, 0.0000000000000000000, -1.000000000000000000 ) ) ;
#151 = LOCAL_TIME ( 8, 42, 49.00000000000000000, #280 ) ;
#152 = AXIS2_PLACEMENT_3D ( 'NONE', #193, #67, #145 ) ;
#153 = PLANE ( 'NONE',  #204 ) ;
#154 = DIRECTION ( 'NONE',  ( 0.0000000000000000000, 1.000000000000000000, 0.0000000000000000000 ) ) ;
#155 = LINE ( 'NONE', #82, #3 ) ;
#156 = EDGE_CURVE ( 'NONE', #245, #233, #115, .T. ) ;
#157 = APPROVAL_ROLE ( '' ) ;
#158 = PERSON_AND_ORGANIZATION_ROLE ( 'classification_officer' ) ;
#159 = PERSON_AND_ORGANIZATION ( #73, #87 ) ;
#160 = ORIENTED_EDGE ( 'NONE', *, *, #262, .T. ) ;
#161 = ORIENTED_EDGE ( 'NONE', *, *, #180, .F. ) ;
#162 = EDGE_LOOP ( 'NONE', ( #140, #208 ) ) ;
#163 = DIRECTION ( 'NONE',  ( -1.000000000000000000, 0.0000000000000000000, 0.0000000000000000000 ) ) ;
#164 = EDGE_CURVE ( 'NONE', #54, #59, #187, .T. ) ;
#165 = CARTESIAN_POINT ( 'NONE',  ( -0.2500000000000000000, 0.0000000000000000000, 0.0000000000000000000 ) ) ;
#166 = CIRCLE ( 'NONE', #238, 25.00000000000000000 ) ;
#167 = EDGE_CURVE ( 'NONE', #191, #245, #38, .T. ) ;
#168 = ADVANCED_FACE ( 'NONE', ( #289 ), #93, .T. ) ;
#169 = DIRECTION ( 'NONE',  ( 0.7071067811865969777, 0.7071067811864980568, 0.0000000000000000000 ) ) ;
#170 = CARTESIAN_POINT ( 'NONE',  ( -10.70485220689000094, 0.0000000000000000000, 0.0000000000000000000 ) ) ;
#171 = ORIENTED_EDGE ( 'NONE', *, *, #42, .F. ) ;
#172 = ORIENTED_EDGE ( 'NONE', *, *, #117, .T. ) ;
#173 = CARTESIAN_POINT ( 'NONE',  ( -10.70485220689000094, 0.0000000000000000000, 0.0000000000000000000 ) ) ;
#174 = AXIS2_PLACEMENT_3D ( 'NONE', #243, #43, #104 ) ;
#175 = ORIENTED_EDGE ( 'NONE', *, *, #216, .F. ) ;
#176 = PERSON_AND_ORGANIZATION_ROLE ( 'creator' ) ;
#177 = DATE_TIME_ROLE ( 'creation_date' ) ;
#178 = EDGE_LOOP ( 'NONE', ( #31, #236, #171, #4 ) ) ;
#179 = APPROVAL_ROLE ( '' ) ;
#180 = EDGE_CURVE ( 'NONE', #230, #225, #77, .T. ) ;
#181 =( NAMED_UNIT ( * ) PLANE_ANGLE_UNIT ( ) SI_UNIT ( $, .RADIAN. ) );
#182 = DATE_AND_TIME ( #52, #151 ) ;
#183 = LINE ( 'NONE', #9, #45 ) ;
#184 = CC_DESIGN_PERSON_AND_ORGANIZATION_ASSIGNMENT ( #105, #273, ( #220 ) ) ;
#185 = CARTESIAN_POINT ( 'NONE',  ( -9.954852206891999344, 0.0000000000000000000, 0.0000000000000000000 ) ) ;
#186 = PERSON_AND_ORGANIZATION ( #73, #87 ) ;
#187 = CIRCLE ( 'NONE', #152, 25.00000000000000000 ) ;
#188 = DIRECTION ( 'NONE',  ( 1.000000000000000000, 0.0000000000000000000, 0.0000000000000000000 ) ) ;
#189 = AXIS2_PLACEMENT_3D ( 'NONE', #287, #240, #267 ) ;
#190 = DIRECTION ( 'NONE',  ( 0.0000000000000000000, -1.000000000000000000, 0.0000000000000000000 ) ) ;
#191 = VERTEX_POINT ( 'NONE', #217 ) ;
#192 = CARTESIAN_POINT ( 'NONE',  ( -0.5000000000000000000, 0.0000000000000000000, 0.0000000000000000000 ) ) ;
#193 = CARTESIAN_POINT ( 'NONE',  ( -0.5000000000000000000, 0.0000000000000000000, 0.0000000000000000000 ) ) ;
#194 = AXIS2_PLACEMENT_3D ( 'NONE', #165, #237, #124 ) ;
#195 = CIRCLE ( 'NONE', #131, 23.70096189431999889 ) ;
#196 = AXIS2_PLACEMENT_3D ( 'NONE', #210, #70, #215 ) ;
#197 = APPROVAL_STATUS ( 'not_yet_approved' ) ;
#198 = FACE_OUTER_BOUND ( 'NONE', #107, .T. ) ;
#199 = CARTESIAN_POINT ( 'NONE',  ( -408.8300000000000409, 0.0000000000000000000, 0.0000000000000000000 ) ) ;
#200 = SECURITY_CLASSIFICATION_LEVEL ( 'unclassified' ) ;
#201 = PERSON_AND_ORGANIZATION ( #73, #87 ) ;
#202 = ORIENTED_EDGE ( 'NONE', *, *, #164, .F. ) ;
#203 = COORDINATED_UNIVERSAL_TIME_OFFSET ( 5, 0, .BEHIND. ) ;
#204 = AXIS2_PLACEMENT_3D ( 'NONE', #218, #246, #27 ) ;
#205 = VECTOR ( 'NONE', #144, 1000.000000000000114 ) ;
#206 = PRODUCT_DEFINITION_SHAPE ( 'NONE', 'NONE',  #288 ) ;
#207 = APPROVAL_DATE_TIME ( #182, #231 ) ;
#208 = ORIENTED_EDGE ( 'NONE', *, *, #226, .F. ) ;
#209 = CC_DESIGN_APPROVAL ( #22, ( #288 ) ) ;
#210 = CARTESIAN_POINT ( 'NONE',  ( 0.0000000000000000000, 0.0000000000000000000, 0.0000000000000000000 ) ) ;
#211 = CARTESIAN_POINT ( 'NONE',  ( -10.70485220689000094, 23.70096189431999889, 0.0000000000000000000 ) ) ;
#212 = COORDINATED_UNIVERSAL_TIME_OFFSET ( 5, 0, .BEHIND. ) ;
#213 = CYLINDRICAL_SURFACE ( 'NONE', #136, 25.00000000000000000 ) ;
#214 = VERTEX_POINT ( 'NONE', #147 ) ;
#215 = DIRECTION ( 'NONE',  ( 0.0000000000000000000, 1.000000000000000000, 0.0000000000000000000 ) ) ;
#216 = EDGE_CURVE ( 'NONE', #59, #225, #266, .T. ) ;
#217 = CARTESIAN_POINT ( 'NONE',  ( -9.954852206891999344, -25.00000000000000000, 0.0000000000000000000 ) ) ;
#218 = CARTESIAN_POINT ( 'NONE',  ( 0.0000000000000000000, 0.0000000000000000000, 0.0000000000000000000 ) ) ;
#219 = ORIENTED_EDGE ( 'NONE', *, *, #120, .T. ) ;
#220 = PRODUCT ( 'Web Model 11539_11539', 'Web Model 11539_11539', '', ( #78 ) ) ;
#221 = CARTESIAN_POINT ( 'NONE',  ( -11.24009481724000103, 0.0000000000000000000, 0.0000000000000000000 ) ) ;
#222 = PERSON_AND_ORGANIZATION ( #73, #87 ) ;
#223 = FACE_OUTER_BOUND ( 'NONE', #162, .T. ) ;
#224 = DATE_AND_TIME ( #26, #141 ) ;
#225 = VERTEX_POINT ( 'NONE', #109 ) ;
#226 = EDGE_CURVE ( 'NONE', #233, #245, #88, .T. ) ;
#227 = DESIGN_CONTEXT ( 'detailed design', #34, 'design' ) ;
#228 = DATE_AND_TIME ( #79, #101 ) ;
#229 = FACE_OUTER_BOUND ( 'NONE', #137, .T. ) ;
#230 = VERTEX_POINT ( 'NONE', #90 ) ;
#231 = APPROVAL ( #134, 'UNSPECIFIED' ) ;
#232 = CARTESIAN_POINT ( 'NONE',  ( -0.5000000000000000000, 25.00000000000000000, 0.0000000000000000000 ) ) ;
#233 = VERTEX_POINT ( 'NONE', #211 ) ;
#234 = CARTESIAN_POINT ( 'NONE',  ( -11.24009481724000103, 0.0000000000000000000, 0.0000000000000000000 ) ) ;
#235 = DIRECTION ( 'NONE',  ( -1.000000000000000000, 0.0000000000000000000, 0.0000000000000000000 ) ) ;
#236 = ORIENTED_EDGE ( 'NONE', *, *, #167, .F. ) ;
#237 = DIRECTION ( 'NONE',  ( -1.000000000000000000, 0.0000000000000000000, 0.0000000000000000000 ) ) ;
#238 = AXIS2_PLACEMENT_3D ( 'NONE', #21, #235, #19 ) ;
#239 = ADVANCED_FACE ( 'NONE', ( #98 ), #257, .T. ) ;
#240 = DIRECTION ( 'NONE',  ( 1.000000000000000000, 0.0000000000000000000, 0.0000000000000000000 ) ) ;
#241 = DIRECTION ( 'NONE',  ( 0.0000000000000000000, 1.000000000000000000, 0.0000000000000000000 ) ) ;
#242 = ADVANCED_FACE ( 'NONE', ( #28 ), #15, .T. ) ;
#243 = CARTESIAN_POINT ( 'NONE',  ( -408.8300000000000409, 0.0000000000000000000, 0.0000000000000000000 ) ) ;
#244 = FACE_OUTER_BOUND ( 'NONE', #261, .T. ) ;
#245 = VERTEX_POINT ( 'NONE', #272 ) ;
#246 = DIRECTION ( 'NONE',  ( 1.000000000000000000, 0.0000000000000000000, 0.0000000000000000000 ) ) ;
#247 = AXIS2_PLACEMENT_3D ( 'NONE', #291, #150, #25 ) ;
#248 = DIRECTION ( 'NONE',  ( 0.0000000000000000000, -1.000000000000000000, 0.0000000000000000000 ) ) ;
#249 = FACE_OUTER_BOUND ( 'NONE', #132, .T. ) ;
#250 = APPLICATION_PROTOCOL_DEFINITION ( 'international standard', 'config_control_design', 1994, #276 ) ;
#251 = EDGE_CURVE ( 'NONE', #214, #233, #255, .T. ) ;
#252 = DIRECTION ( 'NONE',  ( 0.0000000000000000000, 0.0000000000000000000, 1.000000000000000000 ) ) ;
#253 = APPROVAL_ROLE ( '' ) ;
#254 = APPROVAL_PERSON_ORGANIZATION ( #222, #5, #253 ) ;
#255 = LINE ( 'NONE', #148, #205 ) ;
#256 = AXIS2_PLACEMENT_3D ( 'NONE', #199, #29, #94 ) ;
#257 = CONICAL_SURFACE ( 'NONE', #189, 24.35048094716000122, 1.047197551196400456 ) ;
#258 = DIRECTION ( 'NONE',  ( 0.0000000000000000000, -1.000000000000000000, 0.0000000000000000000 ) ) ;
#259 = LOCAL_TIME ( 8, 42, 49.00000000000000000, #203 ) ;
#260 = AXIS2_PLACEMENT_3D ( 'NONE', #170, #188, #241 ) ;
#261 = EDGE_LOOP ( 'NONE', ( #286, #119 ) ) ;
#262 = EDGE_CURVE ( 'NONE', #233, #245, #195, .T. ) ;
#263 = ADVANCED_FACE ( 'NONE', ( #244 ), #153, .T. ) ;
#264 = DIRECTION ( 'NONE',  ( -1.000000000000000000, 0.0000000000000000000, 0.0000000000000000000 ) ) ;
#265 = ADVANCED_FACE ( 'NONE', ( #223 ), #23, .F. ) ;
#266 = LINE ( 'NONE', #24, #128 ) ;
#267 = DIRECTION ( 'NONE',  ( 0.0000000000000000000, -1.000000000000000000, 0.0000000000000000000 ) ) ;
#268 = CC_DESIGN_APPROVAL ( #231, ( #278 ) ) ;
#269 = ADVANCED_FACE ( 'NONE', ( #249 ), #83, .F. ) ;
#270 = APPROVAL_PERSON_ORGANIZATION ( #65, #22, #157 ) ;
#271 = APPROVAL_DATE_TIME ( #228, #5 ) ;
#272 = CARTESIAN_POINT ( 'NONE',  ( -10.70485220689000094, -23.70096189431999889, 0.0000000000000000000 ) ) ;
#273 = PERSON_AND_ORGANIZATION_ROLE ( 'design_owner' ) ;
#274 = CIRCLE ( 'NONE', #284, 25.00000000000000000 ) ;
#275 = ORIENTED_EDGE ( 'NONE', *, *, #279, .F. ) ;
#276 = APPLICATION_CONTEXT ( 'configuration controlled 3d designs of mechanical parts and assemblies' ) ;
#277 = PERSON_AND_ORGANIZATION ( #73, #87 ) ;
#278 = PRODUCT_DEFINITION_FORMATION_WITH_SPECIFIED_SOURCE ( 'ANY', '', #220, .NOT_KNOWN. ) ;
#279 = EDGE_CURVE ( 'NONE', #59, #191, #183, .T. ) ;
#280 = COORDINATED_UNIVERSAL_TIME_OFFSET ( 5, 0, .BEHIND. ) ;
#281 = CONICAL_SURFACE ( 'NONE', #194, 24.75000000000000000, 0.7853981633972997312 ) ;
#282 = ORIENTED_EDGE ( 'NONE', *, *, #103, .T. ) ;
#283 = CARTESIAN_POINT ( 'NONE',  ( -0.5000000000000000000, 25.00000000000000000, 0.0000000000000000000 ) ) ;
#284 = AXIS2_PLACEMENT_3D ( 'NONE', #185, #139, #13 ) ;
#285 = DATE_AND_TIME ( #92, #111 ) ;
#286 = ORIENTED_EDGE ( 'NONE', *, *, #180, .T. ) ;
#287 = CARTESIAN_POINT ( 'NONE',  ( -10.32985220689000094, 0.0000000000000000000, 0.0000000000000000000 ) ) ;
#288 = PRODUCT_DEFINITION ( 'UNKNOWN', '', #278, #227 ) ;
#289 = FACE_OUTER_BOUND ( 'NONE', #178, .T. ) ;
#290 = DIRECTION ( 'NONE',  ( -1.000000000000000000, 0.0000000000000000000, 0.0000000000000000000 ) ) ;
#291 = CARTESIAN_POINT ( 'NONE',  ( -408.8300000000000409, 0.0000000000000000000, 0.0000000000000000000 ) ) ;
ENDSEC;
END-ISO-10303-21;
