ISO-10303-21;
HEADER;
FILE_DESCRIPTION (( 'STEP AP203' ),
    '1' );
FILE_NAME ('Web Model 33317MX_33318.step',
    '2019-05-20T15:07:50',
    ( '' ),
    ( '' ),
    'SwSTEP 2.0',
    'SolidWorks 2018',
    '' );
FILE_SCHEMA (( 'CONFIG_CONTROL_DESIGN' ));
ENDSEC;

DATA;
#1 = CARTESIAN_POINT ( 'NONE',  ( -12.69999999999999929, -12.69999999999999929, 12.69999999999999929 ) ) ;
#2 = APPROVAL_STATUS ( 'not_yet_approved' ) ;
#3 = CARTESIAN_POINT ( 'NONE',  ( -12.69999999999999751, 12.69999999999999751, 12.69999999999999929 ) ) ;
#4 = CARTESIAN_POINT ( 'NONE',  ( 0.0000000000000000000, 0.0000000000000000000, 12.69999999999999929 ) ) ;
#5 = ADVANCED_FACE ( 'NONE', ( #316 ), #42, .T. ) ;
#6 = ORIENTED_EDGE ( 'NONE', *, *, #35, .T. ) ;
#7 = CARTESIAN_POINT ( 'NONE',  ( 12.69999999999999751, -12.69999999999999751, -12.69999999999999929 ) ) ;
#8 = COORDINATED_UNIVERSAL_TIME_OFFSET ( 5, 0, .BEHIND. ) ;
#9 = EDGE_CURVE ( 'NONE', #25, #120, #212, .T. ) ;
#10 = COORDINATED_UNIVERSAL_TIME_OFFSET ( 5, 0, .BEHIND. ) ;
#11 = ADVANCED_FACE ( 'NONE', ( #80 ), #159, .F. ) ;
#12 = PRODUCT_RELATED_PRODUCT_CATEGORY ( 'detail', '', ( #46 ) ) ;
#13 = FACE_OUTER_BOUND ( 'NONE', #30, .T. ) ;
#14 = LOCAL_TIME ( 11, 7, 50.00000000000000000, #10 ) ;
#15 = ORIENTED_EDGE ( 'NONE', *, *, #314, .T. ) ;
#16 = CARTESIAN_POINT ( 'NONE',  ( 0.0000000000000000000, -12.69999999999999929, -12.69999999999999929 ) ) ;
#17 = ORGANIZATION ( 'UNSPECIFIED', 'UNSPECIFIED', '' ) ;
#18 = CARTESIAN_POINT ( 'NONE',  ( -12.69999999999999929, -12.69999999999999929, -12.69999999999999929 ) ) ;
#19 = EDGE_CURVE ( 'NONE', #52, #48, #73, .T. ) ;
#20 = APPLICATION_PROTOCOL_DEFINITION ( 'international standard', 'config_control_design', 1994, #298 ) ;
#21 = PLANE ( 'NONE',  #207 ) ;
#22 = DIRECTION ( 'NONE',  ( -0.0000000000000000000, -0.0000000000000000000, -1.000000000000000000 ) ) ;
#23 = CARTESIAN_POINT ( 'NONE',  ( 12.69999999999999929, 12.69999999999999929, -12.69999999999999929 ) ) ;
#24 = LINE ( 'NONE', #279, #51 ) ;
#25 = VERTEX_POINT ( 'NONE', #291 ) ;
#26 = ADVANCED_FACE ( 'NONE', ( #308 ), #111, .T. ) ;
#27 = DIRECTION ( 'NONE',  ( 0.7071067811865474617, -0.7071067811865474617, 0.0000000000000000000 ) ) ;
#28 = AXIS2_PLACEMENT_3D ( 'NONE', #239, #266, #112 ) ;
#29 = ORIENTED_EDGE ( 'NONE', *, *, #257, .T. ) ;
#30 = EDGE_LOOP ( 'NONE', ( #204, #154, #94, #81 ) ) ;
#31 = DESIGN_CONTEXT ( 'detailed design', #298, 'design' ) ;
#32 = ORIENTED_EDGE ( 'NONE', *, *, #113, .T. ) ;
#33 = LINE ( 'NONE', #41, #118 ) ;
#34 = PERSON_AND_ORGANIZATION ( #119, #17 ) ;
#35 = EDGE_CURVE ( 'NONE', #52, #243, #108, .T. ) ;
#36 = DATE_AND_TIME ( #232, #103 ) ;
#37 = ORIENTED_EDGE ( 'NONE', *, *, #98, .T. ) ;
#38 = LINE ( 'NONE', #190, #235 ) ;
#39 = PLANE ( 'NONE',  #28 ) ;
#40 = CALENDAR_DATE ( 2019, 20, 5 ) ;
#41 = CARTESIAN_POINT ( 'NONE',  ( 12.69999999999999929, 12.69999999999999929, 12.69999999999999929 ) ) ;
#42 = PLANE ( 'NONE',  #92 ) ;
#43 = EDGE_LOOP ( 'NONE', ( #278, #286, #54 ) ) ;
#44 = DIRECTION ( 'NONE',  ( 1.000000000000000000, 0.0000000000000000000, 0.0000000000000000000 ) ) ;
#45 = SHAPE_DEFINITION_REPRESENTATION ( #203, #176 ) ;
#46 = PRODUCT ( 'Web Model 33317MX_33318', 'Web Model 33317MX_33318', '', ( #183 ) ) ;
#47 = EDGE_CURVE ( 'NONE', #109, #122, #144, .T. ) ;
#48 = VERTEX_POINT ( 'NONE', #192 ) ;
#49 = CARTESIAN_POINT ( 'NONE',  ( -0.0000000000000000000, 0.0000000000000000000, -12.69999999999999929 ) ) ;
#50 = LINE ( 'NONE', #1, #169 ) ;
#51 = VECTOR ( 'NONE', #208, 1000.000000000000000 ) ;
#52 = VERTEX_POINT ( 'NONE', #3 ) ;
#53 = LOCAL_TIME ( 11, 7, 50.00000000000000000, #155 ) ;
#54 = ORIENTED_EDGE ( 'NONE', *, *, #47, .F. ) ;
#55 = LINE ( 'NONE', #157, #313 ) ;
#56 = CALENDAR_DATE ( 2019, 20, 5 ) ;
#57 = EDGE_LOOP ( 'NONE', ( #15, #147, #76, #318 ) ) ;
#58 = ORIENTED_EDGE ( 'NONE', *, *, #310, .T. ) ;
#59 = DATE_AND_TIME ( #40, #236 ) ;
#60 = LINE ( 'NONE', #49, #205 ) ;
#61 = DIRECTION ( 'NONE',  ( -0.0000000000000000000, -0.0000000000000000000, -1.000000000000000000 ) ) ;
#62 = VERTEX_POINT ( 'NONE', #218 ) ;
#63 = CARTESIAN_POINT ( 'NONE',  ( 12.69999999999999751, -12.69999999999999751, 12.69999999999999929 ) ) ;
#64 = PERSON_AND_ORGANIZATION_ROLE ( 'design_supplier' ) ;
#65 = CARTESIAN_POINT ( 'NONE',  ( 12.69999999999999751, -12.69999999999999751, 12.69999999999999929 ) ) ;
#66 = PLANE ( 'NONE',  #285 ) ;
#67 = VECTOR ( 'NONE', #242, 1000.000000000000000 ) ;
#68 = CARTESIAN_POINT ( 'NONE',  ( -12.69999999999999929, -12.69999999999999929, 12.69999999999999929 ) ) ;
#69 = CARTESIAN_POINT ( 'NONE',  ( -12.69999999999999751, 12.69999999999999751, 12.69999999999999929 ) ) ;
#70 = DIRECTION ( 'NONE',  ( 0.0000000000000000000, 1.000000000000000000, -0.0000000000000000000 ) ) ;
#71 = VECTOR ( 'NONE', #44, 1000.000000000000000 ) ;
#72 = DIRECTION ( 'NONE',  ( 0.0000000000000000000, 0.0000000000000000000, 1.000000000000000000 ) ) ;
#73 = LINE ( 'NONE', #241, #198 ) ;
#74 = VECTOR ( 'NONE', #27, 1000.000000000000114 ) ;
#75 = ADVANCED_FACE ( 'NONE', ( #152 ), #66, .F. ) ;
#76 = ORIENTED_EDGE ( 'NONE', *, *, #257, .F. ) ;
#77 = LINE ( 'NONE', #138, #277 ) ;
#78 = EDGE_LOOP ( 'NONE', ( #115, #87, #6, #222 ) ) ;
#79 = EDGE_LOOP ( 'NONE', ( #58, #167, #197, #100 ) ) ;
#80 = FACE_OUTER_BOUND ( 'NONE', #43, .T. ) ;
#81 = ORIENTED_EDGE ( 'NONE', *, *, #19, .T. ) ;
#82 = VECTOR ( 'NONE', #297, 1000.000000000000000 ) ;
#83 = DIRECTION ( 'NONE',  ( 0.0000000000000000000, 1.000000000000000000, 0.0000000000000000000 ) ) ;
#84 = DIRECTION ( 'NONE',  ( 1.000000000000000000, 0.0000000000000000000, 0.0000000000000000000 ) ) ;
#85 = APPROVAL_PERSON_ORGANIZATION ( #253, #231, #259 ) ;
#86 = PERSON_AND_ORGANIZATION_ROLE ( 'classification_officer' ) ;
#87 = ORIENTED_EDGE ( 'NONE', *, *, #19, .F. ) ;
#88 = DIRECTION ( 'NONE',  ( -0.7071067811865474617, 0.7071067811865474617, 0.0000000000000000000 ) ) ;
#89 = CC_DESIGN_SECURITY_CLASSIFICATION ( #234, ( #168 ) ) ;
#90 = PLANE ( 'NONE',  #195 ) ;
#91 = PERSON_AND_ORGANIZATION ( #119, #17 ) ;
#92 = AXIS2_PLACEMENT_3D ( 'NONE', #139, #321, #88 ) ;
#93 = DIRECTION ( 'NONE',  ( 0.7071067811865474617, -0.7071067811865474617, 0.0000000000000000000 ) ) ;
#94 = ORIENTED_EDGE ( 'NONE', *, *, #246, .T. ) ;
#95 = MANIFOLD_SOLID_BREP ( 'Boss-Extrude2', #312 ) ;
#96 = CARTESIAN_POINT ( 'NONE',  ( -0.0000000000000000000, 0.0000000000000000000, -12.69999999999999929 ) ) ;
#97 = ORIENTED_EDGE ( 'NONE', *, *, #310, .F. ) ;
#98 = EDGE_CURVE ( 'NONE', #145, #282, #24, .T. ) ;
#99 = FACE_OUTER_BOUND ( 'NONE', #79, .T. ) ;
#100 = ORIENTED_EDGE ( 'NONE', *, *, #220, .T. ) ;
#101 = AXIS2_PLACEMENT_3D ( 'NONE', #223, #117, #72 ) ;
#102 = APPROVAL_DATE_TIME ( #174, #311 ) ;
#103 = LOCAL_TIME ( 11, 7, 50.00000000000000000, #8 ) ;
#104 = ORIENTED_EDGE ( 'NONE', *, *, #153, .F. ) ;
#105 = APPLICATION_PROTOCOL_DEFINITION ( 'international standard', 'config_control_design', 1994, #256 ) ;
#106 = DIRECTION ( 'NONE',  ( 1.000000000000000000, 0.0000000000000000000, 0.0000000000000000000 ) ) ;
#107 = COORDINATED_UNIVERSAL_TIME_OFFSET ( 5, 0, .BEHIND. ) ;
#108 = LINE ( 'NONE', #189, #128 ) ;
#109 = VERTEX_POINT ( 'NONE', #18 ) ;
#110 = DIRECTION ( 'NONE',  ( 0.0000000000000000000, 1.000000000000000000, -0.0000000000000000000 ) ) ;
#111 = PLANE ( 'NONE',  #156 ) ;
#112 = DIRECTION ( 'NONE',  ( 0.0000000000000000000, -0.0000000000000000000, 1.000000000000000000 ) ) ;
#113 = EDGE_CURVE ( 'NONE', #62, #282, #134, .T. ) ;
#114 = DATE_TIME_ROLE ( 'classification_date' ) ;
#115 = ORIENTED_EDGE ( 'NONE', *, *, #300, .F. ) ;
#116 = CARTESIAN_POINT ( 'NONE',  ( 12.69999999999999751, -12.69999999999999751, -12.69999999999999929 ) ) ;
#117 = DIRECTION ( 'NONE',  ( -1.000000000000000000, 0.0000000000000000000, 0.0000000000000000000 ) ) ;
#118 = VECTOR ( 'NONE', #211, 1000.000000000000000 ) ;
#119 = PERSON ( 'UNSPECIFIED', 'UNSPECIFIED', 'UNSPECIFIED', ('UNSPECIFIED'), ('UNSPECIFIED'), ('UNSPECIFIED') ) ;
#120 = VERTEX_POINT ( 'NONE', #23 ) ;
#121 = EDGE_LOOP ( 'NONE', ( #158, #172, #97 ) ) ;
#122 = VERTEX_POINT ( 'NONE', #116 ) ;
#123 = LINE ( 'NONE', #165, #82 ) ;
#124 = AXIS2_PLACEMENT_3D ( 'NONE', #143, #317, #84 ) ;
#125 = DATE_AND_TIME ( #194, #14 ) ;
#126 = ORIENTED_EDGE ( 'NONE', *, *, #35, .F. ) ;
#127 = LINE ( 'NONE', #248, #301 ) ;
#128 = VECTOR ( 'NONE', #268, 1000.000000000000114 ) ;
#129 = MANIFOLD_SOLID_BREP ( 'Boss-Extrude3', #283 ) ;
#130 = EDGE_CURVE ( 'NONE', #243, #122, #258, .T. ) ;
#131 =( NAMED_UNIT ( * ) SI_UNIT ( $, .STERADIAN. ) SOLID_ANGLE_UNIT ( ) );
#132 = FACE_OUTER_BOUND ( 'NONE', #135, .T. ) ;
#133 = AXIS2_PLACEMENT_3D ( 'NONE', #276, #288, #106 ) ;
#134 = LINE ( 'NONE', #219, #71 ) ;
#135 = EDGE_LOOP ( 'NONE', ( #254, #229, #104, #249 ) ) ;
#136 = LINE ( 'NONE', #69, #307 ) ;
#137 = VECTOR ( 'NONE', #263, 1000.000000000000000 ) ;
#138 = CARTESIAN_POINT ( 'NONE',  ( -12.69999999999999929, 0.0000000000000000000, -12.69999999999999929 ) ) ;
#139 = CARTESIAN_POINT ( 'NONE',  ( 0.0000000000000000000, 0.0000000000000000000, 12.69999999999999929 ) ) ;
#140 = CC_DESIGN_PERSON_AND_ORGANIZATION_ASSIGNMENT ( #280, #142, ( #149 ) ) ;
#141 = DIRECTION ( 'NONE',  ( 0.0000000000000000000, 1.000000000000000000, -0.0000000000000000000 ) ) ;
#142 = PERSON_AND_ORGANIZATION_ROLE ( 'creator' ) ;
#143 = CARTESIAN_POINT ( 'NONE',  ( 0.0000000000000000000, 0.0000000000000000000, -12.69999999999999929 ) ) ;
#144 = LINE ( 'NONE', #16, #202 ) ;
#145 = VERTEX_POINT ( 'NONE', #63 ) ;
#146 = CC_DESIGN_PERSON_AND_ORGANIZATION_ASSIGNMENT ( #281, #289, ( #46 ) ) ;
#147 = ORIENTED_EDGE ( 'NONE', *, *, #220, .F. ) ;
#148 = ADVANCED_FACE ( 'NONE', ( #13 ), #90, .T. ) ;
#149 = PRODUCT_DEFINITION ( 'UNKNOWN', '', #168, #31 ) ;
#150 = ADVANCED_FACE ( 'NONE', ( #132 ), #39, .F. ) ;
#151 = FACE_OUTER_BOUND ( 'NONE', #273, .T. ) ;
#152 = FACE_OUTER_BOUND ( 'NONE', #57, .T. ) ;
#153 = EDGE_CURVE ( 'NONE', #180, #243, #123, .T. ) ;
#154 = ORIENTED_EDGE ( 'NONE', *, *, #255, .F. ) ;
#155 = COORDINATED_UNIVERSAL_TIME_OFFSET ( 5, 0, .BEHIND. ) ;
#156 = AXIS2_PLACEMENT_3D ( 'NONE', #164, #260, #293 ) ;
#157 = CARTESIAN_POINT ( 'NONE',  ( 12.69999999999999751, -12.69999999999999751, 12.69999999999999929 ) ) ;
#158 = ORIENTED_EDGE ( 'NONE', *, *, #314, .F. ) ;
#159 = PLANE ( 'NONE',  #124 ) ;
#160 = CC_DESIGN_APPROVAL ( #201, ( #149 ) ) ;
#161 = DIRECTION ( 'NONE',  ( -0.0000000000000000000, -0.0000000000000000000, -1.000000000000000000 ) ) ;
#162 = PLANE ( 'NONE',  #225 ) ;
#163 = APPROVAL_STATUS ( 'not_yet_approved' ) ;
#164 = CARTESIAN_POINT ( 'NONE',  ( 0.0000000000000000000, 0.0000000000000000000, 12.69999999999999929 ) ) ;
#165 = CARTESIAN_POINT ( 'NONE',  ( 0.0000000000000000000, -12.69999999999999929, 12.69999999999999929 ) ) ;
#166 =( LENGTH_UNIT ( ) NAMED_UNIT ( * ) SI_UNIT ( .MILLI., .METRE. ) );
#167 = ORIENTED_EDGE ( 'NONE', *, *, #200, .F. ) ;
#168 = PRODUCT_DEFINITION_FORMATION_WITH_SPECIFIED_SOURCE ( 'ANY', '', #46, .NOT_KNOWN. ) ;
#169 = VECTOR ( 'NONE', #61, 1000.000000000000000 ) ;
#170 = PLANE ( 'NONE',  #101 ) ;
#171 = ADVANCED_FACE ( 'NONE', ( #151 ), #162, .T. ) ;
#172 = ORIENTED_EDGE ( 'NONE', *, *, #9, .T. ) ;
#173 = EDGE_CURVE ( 'NONE', #109, #48, #77, .T. ) ;
#174 = DATE_AND_TIME ( #240, #53 ) ;
#175 = ADVANCED_FACE ( 'NONE', ( #187 ), #21, .F. ) ;
#176 = ADVANCED_BREP_SHAPE_REPRESENTATION ( 'Web Model 33317MX_33318', ( #95, #129, #133 ), #228 ) ;
#177 = LINE ( 'NONE', #96, #74 ) ;
#178 = ADVANCED_FACE ( 'NONE', ( #284 ), #320, .T. ) ;
#179 = COORDINATED_UNIVERSAL_TIME_OFFSET ( 5, 0, .BEHIND. ) ;
#180 = VERTEX_POINT ( 'NONE', #68 ) ;
#181 = EDGE_CURVE ( 'NONE', #62, #25, #136, .T. ) ;
#182 = AXIS2_PLACEMENT_3D ( 'NONE', #188, #319, #294 ) ;
#183 = MECHANICAL_CONTEXT ( 'NONE', #256, 'mechanical' ) ;
#184 = DATE_TIME_ROLE ( 'creation_date' ) ;
#185 = EDGE_LOOP ( 'NONE', ( #309, #305, #126 ) ) ;
#186 = DIRECTION ( 'NONE',  ( 1.000000000000000000, 0.0000000000000000000, 0.0000000000000000000 ) ) ;
#187 = FACE_OUTER_BOUND ( 'NONE', #121, .T. ) ;
#188 = CARTESIAN_POINT ( 'NONE',  ( 0.0000000000000000000, 0.0000000000000000000, 12.69999999999999929 ) ) ;
#189 = CARTESIAN_POINT ( 'NONE',  ( 0.0000000000000000000, 0.0000000000000000000, 12.69999999999999929 ) ) ;
#190 = CARTESIAN_POINT ( 'NONE',  ( -12.69999999999999929, 0.0000000000000000000, 12.69999999999999929 ) ) ;
#191 = APPROVAL_STATUS ( 'not_yet_approved' ) ;
#192 = CARTESIAN_POINT ( 'NONE',  ( -12.69999999999999751, 12.69999999999999751, -12.69999999999999929 ) ) ;
#193 = DIRECTION ( 'NONE',  ( 0.0000000000000000000, 0.0000000000000000000, 1.000000000000000000 ) ) ;
#194 = CALENDAR_DATE ( 2019, 20, 5 ) ;
#195 = AXIS2_PLACEMENT_3D ( 'NONE', #295, #238, #193 ) ;
#196 = DIRECTION ( 'NONE',  ( 0.7071067811865475727, 0.7071067811865475727, -0.0000000000000000000 ) ) ;
#197 = ORIENTED_EDGE ( 'NONE', *, *, #98, .F. ) ;
#198 = VECTOR ( 'NONE', #22, 1000.000000000000000 ) ;
#199 = EDGE_LOOP ( 'NONE', ( #29, #37, #217 ) ) ;
#200 = EDGE_CURVE ( 'NONE', #282, #120, #33, .T. ) ;
#201 = APPROVAL ( #163, 'UNSPECIFIED' ) ;
#202 = VECTOR ( 'NONE', #186, 1000.000000000000000 ) ;
#203 = PRODUCT_DEFINITION_SHAPE ( 'NONE', 'NONE',  #149 ) ;
#204 = ORIENTED_EDGE ( 'NONE', *, *, #173, .F. ) ;
#205 = VECTOR ( 'NONE', #302, 1000.000000000000114 ) ;
#206 = LOCAL_TIME ( 11, 7, 50.00000000000000000, #179 ) ;
#207 = AXIS2_PLACEMENT_3D ( 'NONE', #271, #209, #292 ) ;
#208 = DIRECTION ( 'NONE',  ( 0.0000000000000000000, 1.000000000000000000, -0.0000000000000000000 ) ) ;
#209 = DIRECTION ( 'NONE',  ( -0.0000000000000000000, 0.0000000000000000000, 1.000000000000000000 ) ) ;
#210 = SECURITY_CLASSIFICATION_LEVEL ( 'unclassified' ) ;
#211 = DIRECTION ( 'NONE',  ( -0.0000000000000000000, -0.0000000000000000000, -1.000000000000000000 ) ) ;
#212 = LINE ( 'NONE', #215, #137 ) ;
#213 = CC_DESIGN_DATE_AND_TIME_ASSIGNMENT ( #125, #184, ( #149 ) ) ;
#214 = CARTESIAN_POINT ( 'NONE',  ( 12.69999999999999751, -12.69999999999999751, 12.69999999999999929 ) ) ;
#215 = CARTESIAN_POINT ( 'NONE',  ( -0.0000000000000000000, 12.69999999999999929, -12.69999999999999929 ) ) ;
#216 = PERSON_AND_ORGANIZATION_ROLE ( 'creator' ) ;
#217 = ORIENTED_EDGE ( 'NONE', *, *, #113, .F. ) ;
#218 = CARTESIAN_POINT ( 'NONE',  ( -12.69999999999999751, 12.69999999999999751, 12.69999999999999929 ) ) ;
#219 = CARTESIAN_POINT ( 'NONE',  ( 0.0000000000000000000, 12.69999999999999929, 12.69999999999999929 ) ) ;
#220 = EDGE_CURVE ( 'NONE', #145, #275, #55, .T. ) ;
#221 = CC_DESIGN_PERSON_AND_ORGANIZATION_ASSIGNMENT ( #34, #216, ( #168 ) ) ;
#222 = ORIENTED_EDGE ( 'NONE', *, *, #130, .T. ) ;
#223 = CARTESIAN_POINT ( 'NONE',  ( 12.69999999999999929, 0.0000000000000000000, 12.69999999999999929 ) ) ;
#224 = APPROVAL_DATE_TIME ( #36, #201 ) ;
#225 = AXIS2_PLACEMENT_3D ( 'NONE', #237, #83, #261 ) ;
#226 = DATE_AND_TIME ( #56, #206 ) ;
#227 = LINE ( 'NONE', #4, #245 ) ;
#228 =( GEOMETRIC_REPRESENTATION_CONTEXT ( 3 ) GLOBAL_UNCERTAINTY_ASSIGNED_CONTEXT ( ( #299 ) ) GLOBAL_UNIT_ASSIGNED_CONTEXT ( ( #166, #315, #131 ) ) REPRESENTATION_CONTEXT ( 'NONE', 'WORKASPACE' ) );
#229 = ORIENTED_EDGE ( 'NONE', *, *, #130, .F. ) ;
#230 = ORIENTED_EDGE ( 'NONE', *, *, #181, .F. ) ;
#231 = APPROVAL ( #191, 'UNSPECIFIED' ) ;
#232 = CALENDAR_DATE ( 2019, 20, 5 ) ;
#233 = ORIENTED_EDGE ( 'NONE', *, *, #200, .T. ) ;
#234 = SECURITY_CLASSIFICATION ( '', '', #210 ) ;
#235 = VECTOR ( 'NONE', #141, 1000.000000000000000 ) ;
#236 = LOCAL_TIME ( 11, 7, 50.00000000000000000, #107 ) ;
#237 = CARTESIAN_POINT ( 'NONE',  ( 0.0000000000000000000, 12.69999999999999929, 12.69999999999999929 ) ) ;
#238 = DIRECTION ( 'NONE',  ( -1.000000000000000000, 0.0000000000000000000, 0.0000000000000000000 ) ) ;
#239 = CARTESIAN_POINT ( 'NONE',  ( 0.0000000000000000000, -12.69999999999999929, 12.69999999999999929 ) ) ;
#240 = CALENDAR_DATE ( 2019, 20, 5 ) ;
#241 = CARTESIAN_POINT ( 'NONE',  ( -12.69999999999999751, 12.69999999999999751, 12.69999999999999929 ) ) ;
#242 = DIRECTION ( 'NONE',  ( -0.0000000000000000000, -0.0000000000000000000, -1.000000000000000000 ) ) ;
#243 = VERTEX_POINT ( 'NONE', #65 ) ;
#244 = CARTESIAN_POINT ( 'NONE',  ( 12.69999999999999929, 12.69999999999999929, 12.69999999999999929 ) ) ;
#245 = VECTOR ( 'NONE', #93, 1000.000000000000114 ) ;
#246 = EDGE_CURVE ( 'NONE', #180, #52, #38, .T. ) ;
#247 = PERSON_AND_ORGANIZATION ( #119, #17 ) ;
#248 = CARTESIAN_POINT ( 'NONE',  ( 12.69999999999999929, 0.0000000000000000000, -12.69999999999999929 ) ) ;
#249 = ORIENTED_EDGE ( 'NONE', *, *, #255, .T. ) ;
#250 = PERSON_AND_ORGANIZATION ( #119, #17 ) ;
#251 = CC_DESIGN_APPROVAL ( #311, ( #234 ) ) ;
#252 = APPROVAL_PERSON_ORGANIZATION ( #250, #311, #262 ) ;
#253 = PERSON_AND_ORGANIZATION ( #119, #17 ) ;
#254 = ORIENTED_EDGE ( 'NONE', *, *, #47, .T. ) ;
#255 = EDGE_CURVE ( 'NONE', #180, #109, #50, .T. ) ;
#256 = APPLICATION_CONTEXT ( 'configuration controlled 3d designs of mechanical parts and assemblies' ) ;
#257 = EDGE_CURVE ( 'NONE', #62, #145, #227, .T. ) ;
#258 = LINE ( 'NONE', #214, #67 ) ;
#259 = APPROVAL_ROLE ( '' ) ;
#260 = DIRECTION ( 'NONE',  ( -0.0000000000000000000, 0.0000000000000000000, 1.000000000000000000 ) ) ;
#261 = DIRECTION ( 'NONE',  ( 0.0000000000000000000, -0.0000000000000000000, 1.000000000000000000 ) ) ;
#262 = APPROVAL_ROLE ( '' ) ;
#263 = DIRECTION ( 'NONE',  ( 1.000000000000000000, 0.0000000000000000000, 0.0000000000000000000 ) ) ;
#264 = PERSON_AND_ORGANIZATION ( #119, #17 ) ;
#265 = CC_DESIGN_APPROVAL ( #231, ( #168 ) ) ;
#266 = DIRECTION ( 'NONE',  ( 0.0000000000000000000, 1.000000000000000000, 0.0000000000000000000 ) ) ;
#267 = ORIENTED_EDGE ( 'NONE', *, *, #9, .F. ) ;
#268 = DIRECTION ( 'NONE',  ( 0.7071067811865474617, -0.7071067811865474617, 0.0000000000000000000 ) ) ;
#269 = DIRECTION ( 'NONE',  ( -0.0000000000000000000, -0.0000000000000000000, -1.000000000000000000 ) ) ;
#270 = APPROVAL_ROLE ( '' ) ;
#271 = CARTESIAN_POINT ( 'NONE',  ( 0.0000000000000000000, 0.0000000000000000000, -12.69999999999999929 ) ) ;
#272 = APPROVAL_PERSON_ORGANIZATION ( #264, #201, #270 ) ;
#273 = EDGE_LOOP ( 'NONE', ( #267, #230, #32, #233 ) ) ;
#274 = DIRECTION ( 'NONE',  ( -0.7071067811865474617, 0.7071067811865474617, 0.0000000000000000000 ) ) ;
#275 = VERTEX_POINT ( 'NONE', #7 ) ;
#276 = CARTESIAN_POINT ( 'NONE',  ( 0.0000000000000000000, 0.0000000000000000000, 0.0000000000000000000 ) ) ;
#277 = VECTOR ( 'NONE', #110, 1000.000000000000000 ) ;
#278 = ORIENTED_EDGE ( 'NONE', *, *, #173, .T. ) ;
#279 = CARTESIAN_POINT ( 'NONE',  ( 12.69999999999999929, 0.0000000000000000000, 12.69999999999999929 ) ) ;
#280 = PERSON_AND_ORGANIZATION ( #119, #17 ) ;
#281 = PERSON_AND_ORGANIZATION ( #119, #17 ) ;
#282 = VERTEX_POINT ( 'NONE', #244 ) ;
#283 = CLOSED_SHELL ( 'NONE', ( #75, #303, #171, #26, #175 ) ) ;
#284 = FACE_OUTER_BOUND ( 'NONE', #185, .T. ) ;
#285 = AXIS2_PLACEMENT_3D ( 'NONE', #304, #196, #274 ) ;
#286 = ORIENTED_EDGE ( 'NONE', *, *, #300, .T. ) ;
#287 = CC_DESIGN_PERSON_AND_ORGANIZATION_ASSIGNMENT ( #91, #64, ( #168 ) ) ;
#288 = DIRECTION ( 'NONE',  ( 0.0000000000000000000, 0.0000000000000000000, 1.000000000000000000 ) ) ;
#289 = PERSON_AND_ORGANIZATION_ROLE ( 'design_owner' ) ;
#290 = APPROVAL_DATE_TIME ( #226, #231 ) ;
#291 = CARTESIAN_POINT ( 'NONE',  ( -12.69999999999999751, 12.69999999999999751, -12.69999999999999929 ) ) ;
#292 = DIRECTION ( 'NONE',  ( 1.000000000000000000, 0.0000000000000000000, 0.0000000000000000000 ) ) ;
#293 = DIRECTION ( 'NONE',  ( 1.000000000000000000, 0.0000000000000000000, 0.0000000000000000000 ) ) ;
#294 = DIRECTION ( 'NONE',  ( 1.000000000000000000, 0.0000000000000000000, 0.0000000000000000000 ) ) ;
#295 = CARTESIAN_POINT ( 'NONE',  ( -12.69999999999999929, 0.0000000000000000000, 12.69999999999999929 ) ) ;
#296 = CC_DESIGN_PERSON_AND_ORGANIZATION_ASSIGNMENT ( #247, #86, ( #234 ) ) ;
#297 = DIRECTION ( 'NONE',  ( 1.000000000000000000, 0.0000000000000000000, 0.0000000000000000000 ) ) ;
#298 = APPLICATION_CONTEXT ( 'configuration controlled 3d designs of mechanical parts and assemblies' ) ;
#299 = UNCERTAINTY_MEASURE_WITH_UNIT (LENGTH_MEASURE( 1.000000000000000082E-05 ), #166, 'distance_accuracy_value', 'NONE');
#300 = EDGE_CURVE ( 'NONE', #48, #122, #177, .T. ) ;
#301 = VECTOR ( 'NONE', #70, 1000.000000000000000 ) ;
#302 = DIRECTION ( 'NONE',  ( 0.7071067811865474617, -0.7071067811865474617, 0.0000000000000000000 ) ) ;
#303 = ADVANCED_FACE ( 'NONE', ( #99 ), #170, .F. ) ;
#304 = CARTESIAN_POINT ( 'NONE',  ( 0.0000000000000000000, 0.0000000000000000000, 12.69999999999999929 ) ) ;
#305 = ORIENTED_EDGE ( 'NONE', *, *, #153, .T. ) ;
#306 = CC_DESIGN_DATE_AND_TIME_ASSIGNMENT ( #59, #114, ( #234 ) ) ;
#307 = VECTOR ( 'NONE', #161, 1000.000000000000000 ) ;
#308 = FACE_OUTER_BOUND ( 'NONE', #199, .T. ) ;
#309 = ORIENTED_EDGE ( 'NONE', *, *, #246, .F. ) ;
#310 = EDGE_CURVE ( 'NONE', #275, #120, #127, .T. ) ;
#311 = APPROVAL ( #2, 'UNSPECIFIED' ) ;
#312 = CLOSED_SHELL ( 'NONE', ( #148, #150, #5, #178, #11 ) ) ;
#313 = VECTOR ( 'NONE', #269, 1000.000000000000000 ) ;
#314 = EDGE_CURVE ( 'NONE', #25, #275, #60, .T. ) ;
#315 =( NAMED_UNIT ( * ) PLANE_ANGLE_UNIT ( ) SI_UNIT ( $, .RADIAN. ) );
#316 = FACE_OUTER_BOUND ( 'NONE', #78, .T. ) ;
#317 = DIRECTION ( 'NONE',  ( -0.0000000000000000000, 0.0000000000000000000, 1.000000000000000000 ) ) ;
#318 = ORIENTED_EDGE ( 'NONE', *, *, #181, .T. ) ;
#319 = DIRECTION ( 'NONE',  ( -0.0000000000000000000, 0.0000000000000000000, 1.000000000000000000 ) ) ;
#320 = PLANE ( 'NONE',  #182 ) ;
#321 = DIRECTION ( 'NONE',  ( 0.7071067811865475727, 0.7071067811865475727, -0.0000000000000000000 ) ) ;
ENDSEC;
END-ISO-10303-21;
