ISO-10303-21;
HEADER;
FILE_DESCRIPTION (( 'STEP AP203' ),
    '1' );
FILE_NAME ('Web Model 39274_39274.step',
    '2018-09-10T19:23:45',
    ( '' ),
    ( '' ),
    'SwSTEP 2.0',
    'SolidWorks 2016',
    '' );
FILE_SCHEMA (( 'CONFIG_CONTROL_DESIGN' ));
ENDSEC;

DATA;
#1 = APPROVAL_DATE_TIME ( #44, #85 ) ;
#2 = CARTESIAN_POINT ( 'NONE',  ( -25.00000000000000000, 0.0000000000000000000, 0.5500000000000000400 ) ) ;
#3 = CARTESIAN_POINT ( 'NONE',  ( 0.0000000000000000000, 0.0000000000000000000, 0.5500000000000000400 ) ) ;
#4 = PERSON_AND_ORGANIZATION ( #10, #108 ) ;
#5 = DIRECTION ( 'NONE',  ( 1.000000000000000000, 0.0000000000000000000, 0.0000000000000000000 ) ) ;
#6 = CARTESIAN_POINT ( 'NONE',  ( 25.00000000000000000, 3.061616997868383000E-015, 0.5500000000000000400 ) ) ;
#7 = DIRECTION ( 'NONE',  ( -1.000000000000000000, 0.0000000000000000000, 0.0000000000000000000 ) ) ;
#8 = CARTESIAN_POINT ( 'NONE',  ( 0.0000000000000000000, 0.0000000000000000000, -0.5500000000000000400 ) ) ;
#9 = PERSON_AND_ORGANIZATION_ROLE ( 'design_supplier' ) ;
#10 = PERSON ( 'UNSPECIFIED', 'UNSPECIFIED', 'UNSPECIFIED', ('UNSPECIFIED'), ('UNSPECIFIED'), ('UNSPECIFIED') ) ;
#11 = CYLINDRICAL_SURFACE ( 'NONE', #71, 25.00000000000000000 ) ;
#12 = EDGE_CURVE ( 'NONE', #164, #50, #171, .T. ) ;
#13 = COORDINATED_UNIVERSAL_TIME_OFFSET ( 5, 0, .BEHIND. ) ;
#14 = ORIENTED_EDGE ( 'NONE', *, *, #30, .T. ) ;
#15 = CARTESIAN_POINT ( 'NONE',  ( 0.0000000000000000000, 0.0000000000000000000, 0.5500000000000000400 ) ) ;
#16 = PLANE ( 'NONE',  #131 ) ;
#17 = DIRECTION ( 'NONE',  ( 0.0000000000000000000, 0.0000000000000000000, 1.000000000000000000 ) ) ;
#18 = CALENDAR_DATE ( 2018, 10, 9 ) ;
#19 = LOCAL_TIME ( 15, 23, 45.00000000000000000, #114 ) ;
#20 = FACE_OUTER_BOUND ( 'NONE', #103, .T. ) ;
#21 = ADVANCED_BREP_SHAPE_REPRESENTATION ( 'Web Model 39274_39274', ( #51, #59 ), #148 ) ;
#22 = DIRECTION ( 'NONE',  ( 1.000000000000000000, 0.0000000000000000000, 0.0000000000000000000 ) ) ;
#23 = LOCAL_TIME ( 15, 23, 45.00000000000000000, #92 ) ;
#24 = APPROVAL_ROLE ( '' ) ;
#25 = EDGE_CURVE ( 'NONE', #99, #164, #60, .T. ) ;
#26 = ORIENTED_EDGE ( 'NONE', *, *, #152, .T. ) ;
#27 = APPROVAL_PERSON_ORGANIZATION ( #42, #85, #24 ) ;
#28 = FACE_OUTER_BOUND ( 'NONE', #81, .T. ) ;
#29 = ADVANCED_FACE ( 'NONE', ( #28 ), #16, .T. ) ;
#30 = EDGE_CURVE ( 'NONE', #50, #164, #56, .T. ) ;
#31 = ORIENTED_EDGE ( 'NONE', *, *, #12, .T. ) ;
#32 = PERSON_AND_ORGANIZATION ( #10, #108 ) ;
#33 = DIRECTION ( 'NONE',  ( 1.000000000000000000, 0.0000000000000000000, 0.0000000000000000000 ) ) ;
#34 = LOCAL_TIME ( 15, 23, 45.00000000000000000, #49 ) ;
#35 = DIRECTION ( 'NONE',  ( -0.0000000000000000000, -0.0000000000000000000, -1.000000000000000000 ) ) ;
#36 = PRODUCT_DEFINITION_FORMATION_WITH_SPECIFIED_SOURCE ( 'ANY', '', #175, .NOT_KNOWN. ) ;
#37 = CARTESIAN_POINT ( 'NONE',  ( 0.0000000000000000000, 0.0000000000000000000, 0.0000000000000000000 ) ) ;
#38 = APPROVAL_STATUS ( 'not_yet_approved' ) ;
#39 = DATE_TIME_ROLE ( 'creation_date' ) ;
#40 = ORIENTED_EDGE ( 'NONE', *, *, #121, .F. ) ;
#41 = APPROVAL_ROLE ( '' ) ;
#42 = PERSON_AND_ORGANIZATION ( #10, #108 ) ;
#43 = CC_DESIGN_PERSON_AND_ORGANIZATION_ASSIGNMENT ( #4, #84, ( #155 ) ) ;
#44 = DATE_AND_TIME ( #73, #19 ) ;
#45 = CARTESIAN_POINT ( 'NONE',  ( -25.00000000000000000, 0.0000000000000000000, -0.5500000000000000400 ) ) ;
#46 = LOCAL_TIME ( 15, 23, 45.00000000000000000, #13 ) ;
#47 = ORIENTED_EDGE ( 'NONE', *, *, #94, .F. ) ;
#48 = PERSON_AND_ORGANIZATION_ROLE ( 'creator' ) ;
#49 = COORDINATED_UNIVERSAL_TIME_OFFSET ( 5, 0, .BEHIND. ) ;
#50 = VERTEX_POINT ( 'NONE', #170 ) ;
#51 = MANIFOLD_SOLID_BREP ( 'Boss-Extrude1', #87 ) ;
#52 = CC_DESIGN_APPROVAL ( #142, ( #64 ) ) ;
#53 = ORIENTED_EDGE ( 'NONE', *, *, #121, .T. ) ;
#54 = ORIENTED_EDGE ( 'NONE', *, *, #25, .F. ) ;
#55 = DIRECTION ( 'NONE',  ( 1.000000000000000000, 0.0000000000000000000, -0.0000000000000000000 ) ) ;
#56 = CIRCLE ( 'NONE', #141, 25.00000000000000000 ) ;
#57 = DATE_TIME_ROLE ( 'classification_date' ) ;
#58 = DIRECTION ( 'NONE',  ( 0.0000000000000000000, 0.0000000000000000000, 1.000000000000000000 ) ) ;
#59 = AXIS2_PLACEMENT_3D ( 'NONE', #37, #69, #86 ) ;
#60 = LINE ( 'NONE', #172, #166 ) ;
#61 = CYLINDRICAL_SURFACE ( 'NONE', #128, 25.00000000000000000 ) ;
#62 = ORIENTED_EDGE ( 'NONE', *, *, #30, .F. ) ;
#63 = CARTESIAN_POINT ( 'NONE',  ( 0.0000000000000000000, 0.0000000000000000000, 0.5500000000000000400 ) ) ;
#64 = SECURITY_CLASSIFICATION ( '', '', #149 ) ;
#65 = CARTESIAN_POINT ( 'NONE',  ( 0.0000000000000000000, 0.0000000000000000000, -0.5500000000000000400 ) ) ;
#66 = DATE_AND_TIME ( #109, #23 ) ;
#67 = DIRECTION ( 'NONE',  ( 1.000000000000000000, 0.0000000000000000000, -0.0000000000000000000 ) ) ;
#68 = APPROVAL_ROLE ( '' ) ;
#69 = DIRECTION ( 'NONE',  ( 0.0000000000000000000, 0.0000000000000000000, 1.000000000000000000 ) ) ;
#70 = APPLICATION_CONTEXT ( 'configuration controlled 3d designs of mechanical parts and assemblies' ) ;
#71 = AXIS2_PLACEMENT_3D ( 'NONE', #143, #130, #7 ) ;
#72 = APPLICATION_PROTOCOL_DEFINITION ( 'international standard', 'config_control_design', 1994, #174 ) ;
#73 = CALENDAR_DATE ( 2018, 10, 9 ) ;
#74 = ORIENTED_EDGE ( 'NONE', *, *, #94, .T. ) ;
#75 = CC_DESIGN_DATE_AND_TIME_ASSIGNMENT ( #134, #57, ( #64 ) ) ;
#76 = UNCERTAINTY_MEASURE_WITH_UNIT (LENGTH_MEASURE( 1.000000000000000100E-005 ), #173, 'distance_accuracy_value', 'NONE');
#77 = APPROVAL_DATE_TIME ( #66, #142 ) ;
#78 = APPROVAL_PERSON_ORGANIZATION ( #83, #142, #41 ) ;
#79 = APPROVAL_PERSON_ORGANIZATION ( #124, #165, #68 ) ;
#80 = CC_DESIGN_DATE_AND_TIME_ASSIGNMENT ( #117, #39, ( #155 ) ) ;
#81 = EDGE_LOOP ( 'NONE', ( #26, #53 ) ) ;
#82 = DESIGN_CONTEXT ( 'detailed design', #174, 'design' ) ;
#83 = PERSON_AND_ORGANIZATION ( #10, #108 ) ;
#84 = PERSON_AND_ORGANIZATION_ROLE ( 'creator' ) ;
#85 = APPROVAL ( #38, 'UNSPECIFIED' ) ;
#86 = DIRECTION ( 'NONE',  ( 1.000000000000000000, 0.0000000000000000000, 0.0000000000000000000 ) ) ;
#87 = CLOSED_SHELL ( 'NONE', ( #89, #107, #29, #168 ) ) ;
#88 = PERSON_AND_ORGANIZATION ( #10, #108 ) ;
#89 = ADVANCED_FACE ( 'NONE', ( #127 ), #11, .T. ) ;
#90 = CIRCLE ( 'NONE', #125, 25.00000000000000000 ) ;
#91 = ORIENTED_EDGE ( 'NONE', *, *, #12, .F. ) ;
#92 = COORDINATED_UNIVERSAL_TIME_OFFSET ( 5, 0, .BEHIND. ) ;
#93 = PRODUCT_RELATED_PRODUCT_CATEGORY ( 'detail', '', ( #175 ) ) ;
#94 = EDGE_CURVE ( 'NONE', #129, #50, #138, .T. ) ;
#95 = CARTESIAN_POINT ( 'NONE',  ( 0.0000000000000000000, 0.0000000000000000000, -0.5500000000000000400 ) ) ;
#96 = DATE_AND_TIME ( #147, #34 ) ;
#97 = CC_DESIGN_PERSON_AND_ORGANIZATION_ASSIGNMENT ( #88, #48, ( #36 ) ) ;
#98 = DIRECTION ( 'NONE',  ( 0.0000000000000000000, 0.0000000000000000000, 1.000000000000000000 ) ) ;
#99 = VERTEX_POINT ( 'NONE', #2 ) ;
#100 = DIRECTION ( 'NONE',  ( -0.0000000000000000000, -0.0000000000000000000, -1.000000000000000000 ) ) ;
#101 = PLANE ( 'NONE',  #162 ) ;
#102 = PERSON_AND_ORGANIZATION ( #10, #108 ) ;
#103 = EDGE_LOOP ( 'NONE', ( #91, #62 ) ) ;
#104 = APPROVAL_STATUS ( 'not_yet_approved' ) ;
#105 = CC_DESIGN_APPROVAL ( #85, ( #155 ) ) ;
#106 = CIRCLE ( 'NONE', #159, 25.00000000000000000 ) ;
#107 = ADVANCED_FACE ( 'NONE', ( #151 ), #61, .T. ) ;
#108 = ORGANIZATION ( 'UNSPECIFIED', 'UNSPECIFIED', '' ) ;
#109 = CALENDAR_DATE ( 2018, 10, 9 ) ;
#110 = SHAPE_DEFINITION_REPRESENTATION ( #154, #21 ) ;
#111 = AXIS2_PLACEMENT_3D ( 'NONE', #95, #167, #5 ) ;
#112 = CC_DESIGN_APPROVAL ( #165, ( #36 ) ) ;
#113 = DIRECTION ( 'NONE',  ( 0.0000000000000000000, 0.0000000000000000000, 1.000000000000000000 ) ) ;
#114 = COORDINATED_UNIVERSAL_TIME_OFFSET ( 5, 0, .BEHIND. ) ;
#115 = DIRECTION ( 'NONE',  ( -0.0000000000000000000, -0.0000000000000000000, -1.000000000000000000 ) ) ;
#116 = APPROVAL_DATE_TIME ( #96, #165 ) ;
#117 = DATE_AND_TIME ( #18, #46 ) ;
#118 = PERSON_AND_ORGANIZATION_ROLE ( 'design_owner' ) ;
#119 = MECHANICAL_CONTEXT ( 'NONE', #70, 'mechanical' ) ;
#120 = CARTESIAN_POINT ( 'NONE',  ( 0.0000000000000000000, 0.0000000000000000000, 0.5500000000000000400 ) ) ;
#121 = EDGE_CURVE ( 'NONE', #129, #99, #90, .T. ) ;
#122 = CALENDAR_DATE ( 2018, 10, 9 ) ;
#123 = ORIENTED_EDGE ( 'NONE', *, *, #152, .F. ) ;
#124 = PERSON_AND_ORGANIZATION ( #10, #108 ) ;
#125 = AXIS2_PLACEMENT_3D ( 'NONE', #15, #113, #33 ) ;
#126 = COORDINATED_UNIVERSAL_TIME_OFFSET ( 5, 0, .BEHIND. ) ;
#127 = FACE_OUTER_BOUND ( 'NONE', #139, .T. ) ;
#128 = AXIS2_PLACEMENT_3D ( 'NONE', #3, #100, #158 ) ;
#129 = VERTEX_POINT ( 'NONE', #6 ) ;
#130 = DIRECTION ( 'NONE',  ( -0.0000000000000000000, -0.0000000000000000000, -1.000000000000000000 ) ) ;
#131 = AXIS2_PLACEMENT_3D ( 'NONE', #63, #98, #55 ) ;
#132 = ORIENTED_EDGE ( 'NONE', *, *, #25, .T. ) ;
#133 = APPLICATION_PROTOCOL_DEFINITION ( 'international standard', 'config_control_design', 1994, #70 ) ;
#134 = DATE_AND_TIME ( #122, #137 ) ;
#135 = APPROVAL_STATUS ( 'not_yet_approved' ) ;
#136 = CC_DESIGN_PERSON_AND_ORGANIZATION_ASSIGNMENT ( #102, #118, ( #175 ) ) ;
#137 = LOCAL_TIME ( 15, 23, 45.00000000000000000, #126 ) ;
#138 = LINE ( 'NONE', #156, #140 ) ;
#139 = EDGE_LOOP ( 'NONE', ( #40, #74, #14, #54 ) ) ;
#140 = VECTOR ( 'NONE', #115, 1000.000000000000000 ) ;
#141 = AXIS2_PLACEMENT_3D ( 'NONE', #65, #17, #145 ) ;
#142 = APPROVAL ( #104, 'UNSPECIFIED' ) ;
#143 = CARTESIAN_POINT ( 'NONE',  ( 0.0000000000000000000, 0.0000000000000000000, 0.5500000000000000400 ) ) ;
#144 = CC_DESIGN_PERSON_AND_ORGANIZATION_ASSIGNMENT ( #32, #9, ( #36 ) ) ;
#145 = DIRECTION ( 'NONE',  ( 1.000000000000000000, 0.0000000000000000000, 0.0000000000000000000 ) ) ;
#146 = DIRECTION ( 'NONE',  ( 0.0000000000000000000, 0.0000000000000000000, 1.000000000000000000 ) ) ;
#147 = CALENDAR_DATE ( 2018, 10, 9 ) ;
#148 =( GEOMETRIC_REPRESENTATION_CONTEXT ( 3 ) GLOBAL_UNCERTAINTY_ASSIGNED_CONTEXT ( ( #76 ) ) GLOBAL_UNIT_ASSIGNED_CONTEXT ( ( #173, #161, #160 ) ) REPRESENTATION_CONTEXT ( 'NONE', 'WORKASPACE' ) );
#149 = SECURITY_CLASSIFICATION_LEVEL ( 'unclassified' ) ;
#150 = PERSON_AND_ORGANIZATION_ROLE ( 'classification_officer' ) ;
#151 = FACE_OUTER_BOUND ( 'NONE', #157, .T. ) ;
#152 = EDGE_CURVE ( 'NONE', #99, #129, #106, .T. ) ;
#153 = CC_DESIGN_SECURITY_CLASSIFICATION ( #64, ( #36 ) ) ;
#154 = PRODUCT_DEFINITION_SHAPE ( 'NONE', 'NONE',  #155 ) ;
#155 = PRODUCT_DEFINITION ( 'UNKNOWN', '', #36, #82 ) ;
#156 = CARTESIAN_POINT ( 'NONE',  ( 25.00000000000000000, 3.061616997868383000E-015, 0.5500000000000000400 ) ) ;
#157 = EDGE_LOOP ( 'NONE', ( #47, #123, #132, #31 ) ) ;
#158 = DIRECTION ( 'NONE',  ( -1.000000000000000000, 0.0000000000000000000, 0.0000000000000000000 ) ) ;
#159 = AXIS2_PLACEMENT_3D ( 'NONE', #120, #146, #22 ) ;
#160 =( NAMED_UNIT ( * ) SI_UNIT ( $, .STERADIAN. ) SOLID_ANGLE_UNIT ( ) );
#161 =( NAMED_UNIT ( * ) PLANE_ANGLE_UNIT ( ) SI_UNIT ( $, .RADIAN. ) );
#162 = AXIS2_PLACEMENT_3D ( 'NONE', #8, #58, #67 ) ;
#163 = CC_DESIGN_PERSON_AND_ORGANIZATION_ASSIGNMENT ( #169, #150, ( #64 ) ) ;
#164 = VERTEX_POINT ( 'NONE', #45 ) ;
#165 = APPROVAL ( #135, 'UNSPECIFIED' ) ;
#166 = VECTOR ( 'NONE', #35, 1000.000000000000000 ) ;
#167 = DIRECTION ( 'NONE',  ( 0.0000000000000000000, 0.0000000000000000000, 1.000000000000000000 ) ) ;
#168 = ADVANCED_FACE ( 'NONE', ( #20 ), #101, .F. ) ;
#169 = PERSON_AND_ORGANIZATION ( #10, #108 ) ;
#170 = CARTESIAN_POINT ( 'NONE',  ( 25.00000000000000000, 3.061616997868383000E-015, -0.5500000000000000400 ) ) ;
#171 = CIRCLE ( 'NONE', #111, 25.00000000000000000 ) ;
#172 = CARTESIAN_POINT ( 'NONE',  ( -25.00000000000000000, 0.0000000000000000000, 0.5500000000000000400 ) ) ;
#173 =( LENGTH_UNIT ( ) NAMED_UNIT ( * ) SI_UNIT ( .MILLI., .METRE. ) );
#174 = APPLICATION_CONTEXT ( 'configuration controlled 3d designs of mechanical parts and assemblies' ) ;
#175 = PRODUCT ( 'Web Model 39274_39274', 'Web Model 39274_39274', '', ( #119 ) ) ;
ENDSEC;
END-ISO-10303-21;
