ISO-10303-21;
HEADER;
FILE_DESCRIPTION (( 'STEP AP203' ),
    '1' );
FILE_NAME ('Web Model 84489.STEP',
    '2017-02-01T15:50:59',
    ( '' ),
    ( '' ),
    'SwSTEP 2.0',
    'SolidWorks 2016',
    '' );
FILE_SCHEMA (( 'CONFIG_CONTROL_DESIGN' ));
ENDSEC;

DATA;
#1 = DATE_AND_TIME ( #39, #7 ) ;
#2 = ADVANCED_FACE ( 'NONE', ( #79 ), #134, .T. ) ;
#3 = LINE ( 'NONE', #9, #103 ) ;
#4 = ORIENTED_EDGE ( 'NONE', *, *, #68, .T. ) ;
#5 = CARTESIAN_POINT ( 'NONE',  ( 0.0000000000000000000, 0.0000000000000000000, 3.000000000000000000 ) ) ;
#6 = DIRECTION ( 'NONE',  ( -1.000000000000000000, 0.0000000000000000000, 0.0000000000000000000 ) ) ;
#7 = LOCAL_TIME ( 10, 50, 59.00000000000000000, #70 ) ;
#8 = CARTESIAN_POINT ( 'NONE',  ( 0.0000000000000000000, 0.0000000000000000000, 3.000000000000000000 ) ) ;
#9 = CARTESIAN_POINT ( 'NONE',  ( -15.00000000000000000, 0.0000000000000000000, 3.000000000000000000 ) ) ;
#10 = CC_DESIGN_PERSON_AND_ORGANIZATION_ASSIGNMENT ( #154, #52, ( #144 ) ) ;
#11 = PERSON_AND_ORGANIZATION ( #142, #43 ) ;
#12 = PERSON_AND_ORGANIZATION_ROLE ( 'design_supplier' ) ;
#13 = ORIENTED_EDGE ( 'NONE', *, *, #68, .F. ) ;
#14 = SHAPE_DEFINITION_REPRESENTATION ( #141, #42 ) ;
#15 = ORIENTED_EDGE ( 'NONE', *, *, #28, .F. ) ;
#16 = DIRECTION ( 'NONE',  ( 0.0000000000000000000, 0.0000000000000000000, 1.000000000000000000 ) ) ;
#17 = CYLINDRICAL_SURFACE ( 'NONE', #145, 15.00000000000000000 ) ;
#18 = PERSON_AND_ORGANIZATION ( #142, #43 ) ;
#19 = DIRECTION ( 'NONE',  ( 1.000000000000000000, 0.0000000000000000000, -0.0000000000000000000 ) ) ;
#20 = CARTESIAN_POINT ( 'NONE',  ( 0.0000000000000000000, 0.0000000000000000000, 0.0000000000000000000 ) ) ;
#21 = CIRCLE ( 'NONE', #73, 15.00000000000000000 ) ;
#22 = PERSON_AND_ORGANIZATION_ROLE ( 'creator' ) ;
#23 = APPROVAL_STATUS ( 'not_yet_approved' ) ;
#24 = ORIENTED_EDGE ( 'NONE', *, *, #28, .T. ) ;
#25 = APPROVAL_ROLE ( '' ) ;
#26 = CC_DESIGN_PERSON_AND_ORGANIZATION_ASSIGNMENT ( #122, #116, ( #56 ) ) ;
#27 = PERSON_AND_ORGANIZATION ( #142, #43 ) ;
#28 = EDGE_CURVE ( 'NONE', #46, #131, #66, .T. ) ;
#29 = EDGE_CURVE ( 'NONE', #138, #109, #157, .T. ) ;
#30 = CARTESIAN_POINT ( 'NONE',  ( -15.00000000000000000, 0.0000000000000000000, 0.0000000000000000000 ) ) ;
#31 = CARTESIAN_POINT ( 'NONE',  ( 0.0000000000000000000, 0.0000000000000000000, 3.000000000000000000 ) ) ;
#32 = DIRECTION ( 'NONE',  ( 0.0000000000000000000, 0.0000000000000000000, 1.000000000000000000 ) ) ;
#33 = DIRECTION ( 'NONE',  ( -0.0000000000000000000, -0.0000000000000000000, -1.000000000000000000 ) ) ;
#34 = CC_DESIGN_APPROVAL ( #62, ( #40 ) ) ;
#35 = APPROVAL_STATUS ( 'not_yet_approved' ) ;
#36 = LOCAL_TIME ( 10, 50, 59.00000000000000000, #105 ) ;
#37 = APPLICATION_PROTOCOL_DEFINITION ( 'international standard', 'config_control_design', 1994, #139 ) ;
#38 = AXIS2_PLACEMENT_3D ( 'NONE', #5, #126, #114 ) ;
#39 = CALENDAR_DATE ( 2017, 1, 2 ) ;
#40 = PRODUCT_DEFINITION ( 'UNKNOWN', '', #98, #47 ) ;
#41 = CALENDAR_DATE ( 2017, 1, 2 ) ;
#42 = ADVANCED_BREP_SHAPE_REPRESENTATION ( 'Web Model 84489', ( #175, #160 ), #101 ) ;
#43 = ORGANIZATION ( 'UNSPECIFIED', 'UNSPECIFIED', '' ) ;
#44 = APPROVAL_PERSON_ORGANIZATION ( #69, #60, #25 ) ;
#45 = FACE_OUTER_BOUND ( 'NONE', #110, .T. ) ;
#46 = VERTEX_POINT ( 'NONE', #30 ) ;
#47 = DESIGN_CONTEXT ( 'detailed design', #139, 'design' ) ;
#48 = CARTESIAN_POINT ( 'NONE',  ( 0.0000000000000000000, 0.0000000000000000000, 0.0000000000000000000 ) ) ;
#49 = CARTESIAN_POINT ( 'NONE',  ( 15.00000000000000000, 1.836970198721029600E-015, 0.0000000000000000000 ) ) ;
#50 = CYLINDRICAL_SURFACE ( 'NONE', #57, 15.00000000000000000 ) ;
#51 = EDGE_LOOP ( 'NONE', ( #15, #153 ) ) ;
#52 = PERSON_AND_ORGANIZATION_ROLE ( 'design_owner' ) ;
#53 = CC_DESIGN_DATE_AND_TIME_ASSIGNMENT ( #91, #128, ( #56 ) ) ;
#54 = CALENDAR_DATE ( 2017, 1, 2 ) ;
#55 = EDGE_CURVE ( 'NONE', #109, #46, #3, .T. ) ;
#56 = SECURITY_CLASSIFICATION ( '', '', #89 ) ;
#57 = AXIS2_PLACEMENT_3D ( 'NONE', #8, #71, #6 ) ;
#58 = DIRECTION ( 'NONE',  ( 1.000000000000000000, 0.0000000000000000000, 0.0000000000000000000 ) ) ;
#59 = COORDINATED_UNIVERSAL_TIME_OFFSET ( 5, 0, .BEHIND. ) ;
#60 = APPROVAL ( #168, 'UNSPECIFIED' ) ;
#61 = DIRECTION ( 'NONE',  ( 1.000000000000000000, 0.0000000000000000000, -0.0000000000000000000 ) ) ;
#62 = APPROVAL ( #35, 'UNSPECIFIED' ) ;
#63 = PERSON_AND_ORGANIZATION_ROLE ( 'creator' ) ;
#64 = EDGE_LOOP ( 'NONE', ( #13, #146, #117, #24 ) ) ;
#65 = CC_DESIGN_APPROVAL ( #81, ( #56 ) ) ;
#66 = CIRCLE ( 'NONE', #107, 15.00000000000000000 ) ;
#67 = APPROVAL_PERSON_ORGANIZATION ( #120, #81, #140 ) ;
#68 = EDGE_CURVE ( 'NONE', #138, #131, #133, .T. ) ;
#69 = PERSON_AND_ORGANIZATION ( #142, #43 ) ;
#70 = COORDINATED_UNIVERSAL_TIME_OFFSET ( 5, 0, .BEHIND. ) ;
#71 = DIRECTION ( 'NONE',  ( -0.0000000000000000000, -0.0000000000000000000, -1.000000000000000000 ) ) ;
#72 = DIRECTION ( 'NONE',  ( -0.0000000000000000000, -0.0000000000000000000, -1.000000000000000000 ) ) ;
#73 = AXIS2_PLACEMENT_3D ( 'NONE', #121, #16, #58 ) ;
#74 = DIRECTION ( 'NONE',  ( 0.0000000000000000000, 0.0000000000000000000, 1.000000000000000000 ) ) ;
#75 = AXIS2_PLACEMENT_3D ( 'NONE', #84, #32, #61 ) ;
#76 = CC_DESIGN_SECURITY_CLASSIFICATION ( #56, ( #98 ) ) ;
#77 = DIRECTION ( 'NONE',  ( 1.000000000000000000, 0.0000000000000000000, 0.0000000000000000000 ) ) ;
#78 = CLOSED_SHELL ( 'NONE', ( #96, #130, #2, #159 ) ) ;
#79 = FACE_OUTER_BOUND ( 'NONE', #171, .T. ) ;
#80 = CC_DESIGN_PERSON_AND_ORGANIZATION_ASSIGNMENT ( #11, #63, ( #40 ) ) ;
#81 = APPROVAL ( #23, 'UNSPECIFIED' ) ;
#82 =( NAMED_UNIT ( * ) SI_UNIT ( $, .STERADIAN. ) SOLID_ANGLE_UNIT ( ) );
#83 = EDGE_CURVE ( 'NONE', #109, #138, #156, .T. ) ;
#84 = CARTESIAN_POINT ( 'NONE',  ( 0.0000000000000000000, 0.0000000000000000000, 0.0000000000000000000 ) ) ;
#85 = DIRECTION ( 'NONE',  ( -1.000000000000000000, 0.0000000000000000000, 0.0000000000000000000 ) ) ;
#86 = CARTESIAN_POINT ( 'NONE',  ( 15.00000000000000000, 1.836970198721029600E-015, 3.000000000000000000 ) ) ;
#87 = CC_DESIGN_DATE_AND_TIME_ASSIGNMENT ( #1, #88, ( #40 ) ) ;
#88 = DATE_TIME_ROLE ( 'creation_date' ) ;
#89 = SECURITY_CLASSIFICATION_LEVEL ( 'unclassified' ) ;
#90 = APPROVAL_DATE_TIME ( #163, #81 ) ;
#91 = DATE_AND_TIME ( #155, #158 ) ;
#92 = PRODUCT_RELATED_PRODUCT_CATEGORY ( 'detail', '', ( #144 ) ) ;
#93 = FACE_OUTER_BOUND ( 'NONE', #64, .T. ) ;
#94 = ORIENTED_EDGE ( 'NONE', *, *, #29, .F. ) ;
#95 = EDGE_CURVE ( 'NONE', #131, #46, #21, .T. ) ;
#96 = ADVANCED_FACE ( 'NONE', ( #45 ), #50, .T. ) ;
#97 = UNCERTAINTY_MEASURE_WITH_UNIT (LENGTH_MEASURE( 1.000000000000000100E-005 ), #125, 'distance_accuracy_value', 'NONE');
#98 = PRODUCT_DEFINITION_FORMATION_WITH_SPECIFIED_SOURCE ( 'ANY', '', #144, .NOT_KNOWN. ) ;
#99 = ORIENTED_EDGE ( 'NONE', *, *, #29, .T. ) ;
#100 = PERSON_AND_ORGANIZATION ( #142, #43 ) ;
#101 =( GEOMETRIC_REPRESENTATION_CONTEXT ( 3 ) GLOBAL_UNCERTAINTY_ASSIGNED_CONTEXT ( ( #97 ) ) GLOBAL_UNIT_ASSIGNED_CONTEXT ( ( #125, #151, #82 ) ) REPRESENTATION_CONTEXT ( 'NONE', 'WORKASPACE' ) );
#102 = APPLICATION_CONTEXT ( 'configuration controlled 3d designs of mechanical parts and assemblies' ) ;
#103 = VECTOR ( 'NONE', #72, 1000.000000000000000 ) ;
#104 = COORDINATED_UNIVERSAL_TIME_OFFSET ( 5, 0, .BEHIND. ) ;
#105 = COORDINATED_UNIVERSAL_TIME_OFFSET ( 5, 0, .BEHIND. ) ;
#106 = AXIS2_PLACEMENT_3D ( 'NONE', #31, #136, #124 ) ;
#107 = AXIS2_PLACEMENT_3D ( 'NONE', #20, #113, #166 ) ;
#108 = COORDINATED_UNIVERSAL_TIME_OFFSET ( 5, 0, .BEHIND. ) ;
#109 = VERTEX_POINT ( 'NONE', #112 ) ;
#110 = EDGE_LOOP ( 'NONE', ( #94, #4, #111, #173 ) ) ;
#111 = ORIENTED_EDGE ( 'NONE', *, *, #95, .T. ) ;
#112 = CARTESIAN_POINT ( 'NONE',  ( -15.00000000000000000, 0.0000000000000000000, 3.000000000000000000 ) ) ;
#113 = DIRECTION ( 'NONE',  ( 0.0000000000000000000, 0.0000000000000000000, 1.000000000000000000 ) ) ;
#114 = DIRECTION ( 'NONE',  ( 1.000000000000000000, 0.0000000000000000000, 0.0000000000000000000 ) ) ;
#115 = CARTESIAN_POINT ( 'NONE',  ( 0.0000000000000000000, 0.0000000000000000000, 3.000000000000000000 ) ) ;
#116 = PERSON_AND_ORGANIZATION_ROLE ( 'classification_officer' ) ;
#117 = ORIENTED_EDGE ( 'NONE', *, *, #55, .T. ) ;
#118 = DATE_AND_TIME ( #54, #119 ) ;
#119 = LOCAL_TIME ( 10, 50, 59.00000000000000000, #108 ) ;
#120 = PERSON_AND_ORGANIZATION ( #142, #43 ) ;
#121 = CARTESIAN_POINT ( 'NONE',  ( 0.0000000000000000000, 0.0000000000000000000, 0.0000000000000000000 ) ) ;
#122 = PERSON_AND_ORGANIZATION ( #142, #43 ) ;
#123 = CARTESIAN_POINT ( 'NONE',  ( 0.0000000000000000000, 0.0000000000000000000, 3.000000000000000000 ) ) ;
#124 = DIRECTION ( 'NONE',  ( 1.000000000000000000, 0.0000000000000000000, 0.0000000000000000000 ) ) ;
#125 =( LENGTH_UNIT ( ) NAMED_UNIT ( * ) SI_UNIT ( .MILLI., .METRE. ) );
#126 = DIRECTION ( 'NONE',  ( 0.0000000000000000000, 0.0000000000000000000, 1.000000000000000000 ) ) ;
#127 = APPROVAL_PERSON_ORGANIZATION ( #27, #62, #129 ) ;
#128 = DATE_TIME_ROLE ( 'classification_date' ) ;
#129 = APPROVAL_ROLE ( '' ) ;
#130 = ADVANCED_FACE ( 'NONE', ( #93 ), #17, .T. ) ;
#131 = VERTEX_POINT ( 'NONE', #49 ) ;
#132 = CC_DESIGN_APPROVAL ( #60, ( #98 ) ) ;
#133 = LINE ( 'NONE', #86, #137 ) ;
#134 = PLANE ( 'NONE',  #165 ) ;
#135 = DIRECTION ( 'NONE',  ( 0.0000000000000000000, 0.0000000000000000000, 1.000000000000000000 ) ) ;
#136 = DIRECTION ( 'NONE',  ( 0.0000000000000000000, 0.0000000000000000000, 1.000000000000000000 ) ) ;
#137 = VECTOR ( 'NONE', #161, 1000.000000000000000 ) ;
#138 = VERTEX_POINT ( 'NONE', #150 ) ;
#139 = APPLICATION_CONTEXT ( 'configuration controlled 3d designs of mechanical parts and assemblies' ) ;
#140 = APPROVAL_ROLE ( '' ) ;
#141 = PRODUCT_DEFINITION_SHAPE ( 'NONE', 'NONE',  #40 ) ;
#142 = PERSON ( 'UNSPECIFIED', 'UNSPECIFIED', 'UNSPECIFIED', ('UNSPECIFIED'), ('UNSPECIFIED'), ('UNSPECIFIED') ) ;
#143 = CC_DESIGN_PERSON_AND_ORGANIZATION_ASSIGNMENT ( #100, #22, ( #98 ) ) ;
#144 = PRODUCT ( 'Web Model 84489', 'Web Model 84489', '', ( #169 ) ) ;
#145 = AXIS2_PLACEMENT_3D ( 'NONE', #123, #33, #85 ) ;
#146 = ORIENTED_EDGE ( 'NONE', *, *, #83, .F. ) ;
#147 = LOCAL_TIME ( 10, 50, 59.00000000000000000, #104 ) ;
#148 = APPROVAL_DATE_TIME ( #118, #62 ) ;
#149 = ORIENTED_EDGE ( 'NONE', *, *, #83, .T. ) ;
#150 = CARTESIAN_POINT ( 'NONE',  ( 15.00000000000000000, 1.836970198721029600E-015, 3.000000000000000000 ) ) ;
#151 =( NAMED_UNIT ( * ) PLANE_ANGLE_UNIT ( ) SI_UNIT ( $, .RADIAN. ) );
#152 = APPLICATION_PROTOCOL_DEFINITION ( 'international standard', 'config_control_design', 1994, #102 ) ;
#153 = ORIENTED_EDGE ( 'NONE', *, *, #95, .F. ) ;
#154 = PERSON_AND_ORGANIZATION ( #142, #43 ) ;
#155 = CALENDAR_DATE ( 2017, 1, 2 ) ;
#156 = CIRCLE ( 'NONE', #38, 15.00000000000000000 ) ;
#157 = CIRCLE ( 'NONE', #106, 15.00000000000000000 ) ;
#158 = LOCAL_TIME ( 10, 50, 59.00000000000000000, #59 ) ;
#159 = ADVANCED_FACE ( 'NONE', ( #170 ), #164, .F. ) ;
#160 = AXIS2_PLACEMENT_3D ( 'NONE', #48, #74, #77 ) ;
#161 = DIRECTION ( 'NONE',  ( -0.0000000000000000000, -0.0000000000000000000, -1.000000000000000000 ) ) ;
#162 = CC_DESIGN_PERSON_AND_ORGANIZATION_ASSIGNMENT ( #18, #12, ( #98 ) ) ;
#163 = DATE_AND_TIME ( #172, #36 ) ;
#164 = PLANE ( 'NONE',  #75 ) ;
#165 = AXIS2_PLACEMENT_3D ( 'NONE', #115, #135, #19 ) ;
#166 = DIRECTION ( 'NONE',  ( 1.000000000000000000, 0.0000000000000000000, 0.0000000000000000000 ) ) ;
#167 = DATE_AND_TIME ( #41, #147 ) ;
#168 = APPROVAL_STATUS ( 'not_yet_approved' ) ;
#169 = MECHANICAL_CONTEXT ( 'NONE', #102, 'mechanical' ) ;
#170 = FACE_OUTER_BOUND ( 'NONE', #51, .T. ) ;
#171 = EDGE_LOOP ( 'NONE', ( #149, #99 ) ) ;
#172 = CALENDAR_DATE ( 2017, 1, 2 ) ;
#173 = ORIENTED_EDGE ( 'NONE', *, *, #55, .F. ) ;
#174 = APPROVAL_DATE_TIME ( #167, #60 ) ;
#175 = MANIFOLD_SOLID_BREP ( 'Extrude1', #78 ) ;
ENDSEC;
END-ISO-10303-21;
