ISO-10303-21;
HEADER;
FILE_DESCRIPTION (( 'STEP AP203' ),
    '1' );
FILE_NAME ('Web Model 68369_48906.step',
    '2017-03-01T19:00:09',
    ( '' ),
    ( '' ),
    'SwSTEP 2.0',
    'SolidWorks 2016',
    '' );
FILE_SCHEMA (( 'CONFIG_CONTROL_DESIGN' ));
ENDSEC;

DATA;
#1 = FACE_OUTER_BOUND ( 'NONE', #160, .T. ) ;
#2 = AXIS2_PLACEMENT_3D ( 'NONE', #215, #213, #224 ) ;
#3 = ADVANCED_FACE ( 'NONE', ( #1 ), #29, .F. ) ;
#4 = DIRECTION ( 'NONE',  ( 1.387778780781445700E-016, -1.000000000000000000, 0.0000000000000000000 ) ) ;
#5 = CARTESIAN_POINT ( 'NONE',  ( -12.49999999999999800, 12.49999999999999600, 3.000000000000000000 ) ) ;
#6 = CC_DESIGN_PERSON_AND_ORGANIZATION_ASSIGNMENT ( #56, #79, ( #112 ) ) ;
#7 = LINE ( 'NONE', #24, #94 ) ;
#8 = ORIENTED_EDGE ( 'NONE', *, *, #30, .T. ) ;
#9 = CARTESIAN_POINT ( 'NONE',  ( -12.49999999999999500, -12.50000000000000400, 3.000000000000000000 ) ) ;
#10 = DIRECTION ( 'NONE',  ( -1.000000000000000000, 0.0000000000000000000, -0.0000000000000000000 ) ) ;
#11 = DATE_AND_TIME ( #111, #47 ) ;
#12 = DIRECTION ( 'NONE',  ( -1.000000000000000000, -4.163336342344336500E-016, 0.0000000000000000000 ) ) ;
#13 = APPROVAL_PERSON_ORGANIZATION ( #233, #89, #169 ) ;
#14 = AXIS2_PLACEMENT_3D ( 'NONE', #172, #38, #234 ) ;
#15 = CALENDAR_DATE ( 2017, 1, 3 ) ;
#16 = APPLICATION_CONTEXT ( 'configuration controlled 3d designs of mechanical parts and assemblies' ) ;
#17 = APPROVAL_STATUS ( 'not_yet_approved' ) ;
#18 = APPROVAL_ROLE ( '' ) ;
#19 = PERSON_AND_ORGANIZATION ( #87, #122 ) ;
#20 = LOCAL_TIME ( 14, 0, 9.000000000000000000, #206 ) ;
#21 = PLANE ( 'NONE',  #22 ) ;
#22 = AXIS2_PLACEMENT_3D ( 'NONE', #162, #50, #34 ) ;
#23 = ORIENTED_EDGE ( 'NONE', *, *, #237, .F. ) ;
#24 = CARTESIAN_POINT ( 'NONE',  ( -12.49999999999999500, -12.50000000000000400, 3.000000000000000000 ) ) ;
#25 =( NAMED_UNIT ( * ) SI_UNIT ( $, .STERADIAN. ) SOLID_ANGLE_UNIT ( ) );
#26 = CARTESIAN_POINT ( 'NONE',  ( 12.50000000000000500, -12.50000000000000000, 0.0000000000000000000 ) ) ;
#27 = DATE_TIME_ROLE ( 'classification_date' ) ;
#28 = APPROVAL_DATE_TIME ( #212, #140 ) ;
#29 = PLANE ( 'NONE',  #97 ) ;
#30 = EDGE_CURVE ( 'NONE', #125, #128, #188, .T. ) ;
#31 = ADVANCED_BREP_SHAPE_REPRESENTATION ( 'Web Model 68369_48906', ( #159, #60 ), #83 ) ;
#32 = APPROVAL_PERSON_ORGANIZATION ( #19, #228, #18 ) ;
#33 = CARTESIAN_POINT ( 'NONE',  ( 12.49999999999999500, 12.50000000000000000, 0.0000000000000000000 ) ) ;
#34 = DIRECTION ( 'NONE',  ( -1.000000000000000000, 0.0000000000000000000, -0.0000000000000000000 ) ) ;
#35 = FACE_OUTER_BOUND ( 'NONE', #184, .T. ) ;
#36 = CARTESIAN_POINT ( 'NONE',  ( 12.49999999999999500, 12.50000000000000000, 3.000000000000000000 ) ) ;
#37 = CARTESIAN_POINT ( 'NONE',  ( -12.49999999999999800, 12.49999999999999600, 3.000000000000000000 ) ) ;
#38 = DIRECTION ( 'NONE',  ( -1.387778780781445400E-016, 1.000000000000000000, 0.0000000000000000000 ) ) ;
#39 = ORIENTED_EDGE ( 'NONE', *, *, #127, .T. ) ;
#40 = PERSON_AND_ORGANIZATION ( #87, #122 ) ;
#41 = DIRECTION ( 'NONE',  ( -0.0000000000000000000, -0.0000000000000000000, -1.000000000000000000 ) ) ;
#42 = CARTESIAN_POINT ( 'NONE',  ( -12.49999999999999800, 12.49999999999999600, 0.0000000000000000000 ) ) ;
#43 = EDGE_CURVE ( 'NONE', #125, #84, #75, .T. ) ;
#44 = ORIENTED_EDGE ( 'NONE', *, *, #108, .F. ) ;
#45 = DIRECTION ( 'NONE',  ( 1.387778780781445900E-016, -1.000000000000000000, 0.0000000000000000000 ) ) ;
#46 = ORIENTED_EDGE ( 'NONE', *, *, #67, .T. ) ;
#47 = LOCAL_TIME ( 14, 0, 9.000000000000000000, #49 ) ;
#48 = APPROVAL_DATE_TIME ( #11, #228 ) ;
#49 = COORDINATED_UNIVERSAL_TIME_OFFSET ( 5, 0, .BEHIND. ) ;
#50 = DIRECTION ( 'NONE',  ( 0.0000000000000000000, 0.0000000000000000000, -1.000000000000000000 ) ) ;
#51 = EDGE_LOOP ( 'NONE', ( #170, #216, #181, #186 ) ) ;
#52 = EDGE_CURVE ( 'NONE', #148, #128, #53, .T. ) ;
#53 = LINE ( 'NONE', #221, #229 ) ;
#54 = PERSON_AND_ORGANIZATION ( #87, #122 ) ;
#55 = DIRECTION ( 'NONE',  ( -0.0000000000000000000, -0.0000000000000000000, -1.000000000000000000 ) ) ;
#56 = PERSON_AND_ORGANIZATION ( #87, #122 ) ;
#57 = ADVANCED_FACE ( 'NONE', ( #222 ), #164, .F. ) ;
#58 = ORIENTED_EDGE ( 'NONE', *, *, #108, .T. ) ;
#59 = CALENDAR_DATE ( 2017, 1, 3 ) ;
#60 = AXIS2_PLACEMENT_3D ( 'NONE', #65, #85, #165 ) ;
#61 = CC_DESIGN_PERSON_AND_ORGANIZATION_ASSIGNMENT ( #54, #230, ( #112 ) ) ;
#62 = DATE_AND_TIME ( #59, #179 ) ;
#63 = FACE_OUTER_BOUND ( 'NONE', #210, .T. ) ;
#64 =( LENGTH_UNIT ( ) NAMED_UNIT ( * ) SI_UNIT ( .MILLI., .METRE. ) );
#65 = CARTESIAN_POINT ( 'NONE',  ( 0.0000000000000000000, 0.0000000000000000000, 0.0000000000000000000 ) ) ;
#66 = DIRECTION ( 'NONE',  ( 1.000000000000000000, 1.387778780781445700E-016, -0.0000000000000000000 ) ) ;
#67 = EDGE_CURVE ( 'NONE', #154, #148, #175, .T. ) ;
#68 = COORDINATED_UNIVERSAL_TIME_OFFSET ( 5, 0, .BEHIND. ) ;
#69 = ORIENTED_EDGE ( 'NONE', *, *, #93, .F. ) ;
#70 = DIRECTION ( 'NONE',  ( -0.0000000000000000000, -0.0000000000000000000, -1.000000000000000000 ) ) ;
#71 = CARTESIAN_POINT ( 'NONE',  ( -12.49999999999999500, -12.50000000000000400, 0.0000000000000000000 ) ) ;
#72 = PLANE ( 'NONE',  #178 ) ;
#73 = PERSON_AND_ORGANIZATION ( #87, #122 ) ;
#74 = PLANE ( 'NONE',  #14 ) ;
#75 = LINE ( 'NONE', #110, #187 ) ;
#76 = DIRECTION ( 'NONE',  ( -4.163336342344337000E-016, 1.000000000000000000, -0.0000000000000000000 ) ) ;
#77 = CC_DESIGN_PERSON_AND_ORGANIZATION_ASSIGNMENT ( #82, #130, ( #202 ) ) ;
#78 = APPLICATION_PROTOCOL_DEFINITION ( 'international standard', 'config_control_design', 1994, #147 ) ;
#79 = PERSON_AND_ORGANIZATION_ROLE ( 'creator' ) ;
#80 = DIRECTION ( 'NONE',  ( 4.163336342344336500E-016, -1.000000000000000000, 0.0000000000000000000 ) ) ;
#81 = CARTESIAN_POINT ( 'NONE',  ( 12.50000000000000500, -12.50000000000000000, 3.000000000000000000 ) ) ;
#82 = PERSON_AND_ORGANIZATION ( #87, #122 ) ;
#83 =( GEOMETRIC_REPRESENTATION_CONTEXT ( 3 ) GLOBAL_UNCERTAINTY_ASSIGNED_CONTEXT ( ( #90 ) ) GLOBAL_UNIT_ASSIGNED_CONTEXT ( ( #64, #183, #25 ) ) REPRESENTATION_CONTEXT ( 'NONE', 'WORKASPACE' ) );
#84 = VERTEX_POINT ( 'NONE', #201 ) ;
#85 = DIRECTION ( 'NONE',  ( 0.0000000000000000000, 0.0000000000000000000, 1.000000000000000000 ) ) ;
#86 = EDGE_CURVE ( 'NONE', #116, #125, #126, .T. ) ;
#87 = PERSON ( 'UNSPECIFIED', 'UNSPECIFIED', 'UNSPECIFIED', ('UNSPECIFIED'), ('UNSPECIFIED'), ('UNSPECIFIED') ) ;
#88 = CARTESIAN_POINT ( 'NONE',  ( 12.49999999999999500, 12.50000000000000000, 3.000000000000000000 ) ) ;
#89 = APPROVAL ( #17, 'UNSPECIFIED' ) ;
#90 = UNCERTAINTY_MEASURE_WITH_UNIT (LENGTH_MEASURE( 1.000000000000000100E-005 ), #64, 'distance_accuracy_value', 'NONE');
#91 = ORIENTED_EDGE ( 'NONE', *, *, #86, .T. ) ;
#92 = VECTOR ( 'NONE', #177, 1000.000000000000000 ) ;
#93 = EDGE_CURVE ( 'NONE', #109, #154, #190, .T. ) ;
#94 = VECTOR ( 'NONE', #41, 1000.000000000000000 ) ;
#95 = PRODUCT_DEFINITION_SHAPE ( 'NONE', 'NONE',  #117 ) ;
#96 = LOCAL_TIME ( 14, 0, 9.000000000000000000, #192 ) ;
#97 = AXIS2_PLACEMENT_3D ( 'NONE', #88, #12, #80 ) ;
#98 = CARTESIAN_POINT ( 'NONE',  ( -12.49999999999999800, 12.49999999999999600, 3.000000000000000000 ) ) ;
#99 = ADVANCED_FACE ( 'NONE', ( #35 ), #174, .F. ) ;
#100 = VECTOR ( 'NONE', #4, 1000.000000000000000 ) ;
#101 = ORIENTED_EDGE ( 'NONE', *, *, #67, .F. ) ;
#102 = EDGE_CURVE ( 'NONE', #128, #109, #171, .T. ) ;
#103 = FACE_OUTER_BOUND ( 'NONE', #163, .T. ) ;
#104 = EDGE_CURVE ( 'NONE', #84, #120, #218, .T. ) ;
#105 = CC_DESIGN_SECURITY_CLASSIFICATION ( #202, ( #112 ) ) ;
#106 = VECTOR ( 'NONE', #225, 1000.000000000000000 ) ;
#107 = ORIENTED_EDGE ( 'NONE', *, *, #43, .T. ) ;
#108 = EDGE_CURVE ( 'NONE', #84, #109, #124, .T. ) ;
#109 = VERTEX_POINT ( 'NONE', #156 ) ;
#110 = CARTESIAN_POINT ( 'NONE',  ( 12.49999999999999500, 12.50000000000000000, 3.000000000000000000 ) ) ;
#111 = CALENDAR_DATE ( 2017, 1, 3 ) ;
#112 = PRODUCT_DEFINITION_FORMATION_WITH_SPECIFIED_SOURCE ( 'ANY', '', #151, .NOT_KNOWN. ) ;
#113 = DIRECTION ( 'NONE',  ( -1.000000000000000000, -1.387778780781445900E-016, 0.0000000000000000000 ) ) ;
#114 = CLOSED_SHELL ( 'NONE', ( #57, #152, #3, #99, #121, #144 ) ) ;
#115 = APPROVAL_DATE_TIME ( #143, #89 ) ;
#116 = VERTEX_POINT ( 'NONE', #9 ) ;
#117 = PRODUCT_DEFINITION ( 'UNKNOWN', '', #112, #136 ) ;
#118 = FACE_OUTER_BOUND ( 'NONE', #51, .T. ) ;
#119 = VECTOR ( 'NONE', #207, 1000.000000000000000 ) ;
#120 = VERTEX_POINT ( 'NONE', #37 ) ;
#121 = ADVANCED_FACE ( 'NONE', ( #103 ), #72, .F. ) ;
#122 = ORGANIZATION ( 'UNSPECIFIED', 'UNSPECIFIED', '' ) ;
#123 = CC_DESIGN_APPROVAL ( #228, ( #117 ) ) ;
#124 = LINE ( 'NONE', #36, #145 ) ;
#125 = VERTEX_POINT ( 'NONE', #138 ) ;
#126 = LINE ( 'NONE', #153, #193 ) ;
#127 = EDGE_CURVE ( 'NONE', #120, #154, #205, .T. ) ;
#128 = VERTEX_POINT ( 'NONE', #26 ) ;
#129 = LOCAL_TIME ( 14, 0, 9.000000000000000000, #227 ) ;
#130 = PERSON_AND_ORGANIZATION_ROLE ( 'classification_officer' ) ;
#131 = APPROVAL_STATUS ( 'not_yet_approved' ) ;
#132 = DATE_AND_TIME ( #15, #96 ) ;
#133 = ORIENTED_EDGE ( 'NONE', *, *, #102, .T. ) ;
#134 = DIRECTION ( 'NONE',  ( 1.000000000000000000, 1.387778780781445900E-016, 0.0000000000000000000 ) ) ;
#135 = VECTOR ( 'NONE', #113, 1000.000000000000000 ) ;
#136 = DESIGN_CONTEXT ( 'detailed design', #147, 'design' ) ;
#137 = CC_DESIGN_PERSON_AND_ORGANIZATION_ASSIGNMENT ( #40, #157, ( #117 ) ) ;
#138 = CARTESIAN_POINT ( 'NONE',  ( 12.50000000000000500, -12.50000000000000000, 3.000000000000000000 ) ) ;
#139 = DIRECTION ( 'NONE',  ( -1.000000000000000000, -1.387778780781445900E-016, 0.0000000000000000000 ) ) ;
#140 = APPROVAL ( #131, 'UNSPECIFIED' ) ;
#141 = CARTESIAN_POINT ( 'NONE',  ( 12.49999999999999500, 12.50000000000000000, 0.0000000000000000000 ) ) ;
#142 = ORIENTED_EDGE ( 'NONE', *, *, #102, .F. ) ;
#143 = DATE_AND_TIME ( #189, #20 ) ;
#144 = ADVANCED_FACE ( 'NONE', ( #63 ), #21, .T. ) ;
#145 = VECTOR ( 'NONE', #55, 1000.000000000000000 ) ;
#146 = EDGE_LOOP ( 'NONE', ( #46, #23, #231, #39 ) ) ;
#147 = APPLICATION_CONTEXT ( 'configuration controlled 3d designs of mechanical parts and assemblies' ) ;
#148 = VERTEX_POINT ( 'NONE', #71 ) ;
#149 = MECHANICAL_CONTEXT ( 'NONE', #16, 'mechanical' ) ;
#150 = CALENDAR_DATE ( 2017, 1, 3 ) ;
#151 = PRODUCT ( 'Web Model 68369_48906', 'Web Model 68369_48906', '', ( #149 ) ) ;
#152 = ADVANCED_FACE ( 'NONE', ( #118 ), #74, .F. ) ;
#153 = CARTESIAN_POINT ( 'NONE',  ( 12.50000000000000500, -12.50000000000000000, 3.000000000000000000 ) ) ;
#154 = VERTEX_POINT ( 'NONE', #42 ) ;
#155 = CC_DESIGN_DATE_AND_TIME_ASSIGNMENT ( #132, #220, ( #117 ) ) ;
#156 = CARTESIAN_POINT ( 'NONE',  ( 12.49999999999999500, 12.50000000000000000, 0.0000000000000000000 ) ) ;
#157 = PERSON_AND_ORGANIZATION_ROLE ( 'creator' ) ;
#158 = CC_DESIGN_APPROVAL ( #89, ( #202 ) ) ;
#159 = MANIFOLD_SOLID_BREP ( 'Extrude1', #114 ) ;
#160 = EDGE_LOOP ( 'NONE', ( #133, #44, #197, #8 ) ) ;
#161 = PERSON_AND_ORGANIZATION ( #87, #122 ) ;
#162 = CARTESIAN_POINT ( 'NONE',  ( -12.49999999999999500, -12.50000000000000400, 0.0000000000000000000 ) ) ;
#163 = EDGE_LOOP ( 'NONE', ( #194, #91, #107, #203 ) ) ;
#164 = PLANE ( 'NONE',  #2 ) ;
#165 = DIRECTION ( 'NONE',  ( 1.000000000000000000, 0.0000000000000000000, 0.0000000000000000000 ) ) ;
#166 = EDGE_CURVE ( 'NONE', #120, #116, #214, .T. ) ;
#167 = ORIENTED_EDGE ( 'NONE', *, *, #127, .F. ) ;
#168 = VECTOR ( 'NONE', #70, 1000.000000000000000 ) ;
#169 = APPROVAL_ROLE ( '' ) ;
#170 = ORIENTED_EDGE ( 'NONE', *, *, #52, .T. ) ;
#171 = LINE ( 'NONE', #141, #119 ) ;
#172 = CARTESIAN_POINT ( 'NONE',  ( 12.50000000000000500, -12.50000000000000000, 3.000000000000000000 ) ) ;
#173 = CARTESIAN_POINT ( 'NONE',  ( -12.49999999999999800, 12.49999999999999600, 0.0000000000000000000 ) ) ;
#174 = PLANE ( 'NONE',  #223 ) ;
#175 = LINE ( 'NONE', #173, #100 ) ;
#176 = APPLICATION_PROTOCOL_DEFINITION ( 'international standard', 'config_control_design', 1994, #16 ) ;
#177 = DIRECTION ( 'NONE',  ( 1.387778780781445700E-016, -1.000000000000000000, 0.0000000000000000000 ) ) ;
#178 = AXIS2_PLACEMENT_3D ( 'NONE', #219, #180, #10 ) ;
#179 = LOCAL_TIME ( 14, 0, 9.000000000000000000, #68 ) ;
#180 = DIRECTION ( 'NONE',  ( 0.0000000000000000000, 0.0000000000000000000, -1.000000000000000000 ) ) ;
#181 = ORIENTED_EDGE ( 'NONE', *, *, #86, .F. ) ;
#182 = VECTOR ( 'NONE', #139, 1000.000000000000000 ) ;
#183 =( NAMED_UNIT ( * ) PLANE_ANGLE_UNIT ( ) SI_UNIT ( $, .RADIAN. ) );
#184 = EDGE_LOOP ( 'NONE', ( #204, #167, #199, #58 ) ) ;
#185 = APPROVAL_STATUS ( 'not_yet_approved' ) ;
#186 = ORIENTED_EDGE ( 'NONE', *, *, #237, .T. ) ;
#187 = VECTOR ( 'NONE', #76, 1000.000000000000000 ) ;
#188 = LINE ( 'NONE', #81, #106 ) ;
#189 = CALENDAR_DATE ( 2017, 1, 3 ) ;
#190 = LINE ( 'NONE', #33, #135 ) ;
#191 = CARTESIAN_POINT ( 'NONE',  ( 12.49999999999999500, 12.50000000000000000, 3.000000000000000000 ) ) ;
#192 = COORDINATED_UNIVERSAL_TIME_OFFSET ( 5, 0, .BEHIND. ) ;
#193 = VECTOR ( 'NONE', #66, 1000.000000000000000 ) ;
#194 = ORIENTED_EDGE ( 'NONE', *, *, #166, .T. ) ;
#195 = PRODUCT_RELATED_PRODUCT_CATEGORY ( 'detail', '', ( #151 ) ) ;
#196 = CARTESIAN_POINT ( 'NONE',  ( 12.49999999999999500, 12.50000000000000000, 3.000000000000000000 ) ) ;
#197 = ORIENTED_EDGE ( 'NONE', *, *, #43, .F. ) ;
#198 = SECURITY_CLASSIFICATION_LEVEL ( 'unclassified' ) ;
#199 = ORIENTED_EDGE ( 'NONE', *, *, #104, .F. ) ;
#200 = PERSON_AND_ORGANIZATION_ROLE ( 'design_owner' ) ;
#201 = CARTESIAN_POINT ( 'NONE',  ( 12.49999999999999500, 12.50000000000000000, 3.000000000000000000 ) ) ;
#202 = SECURITY_CLASSIFICATION ( '', '', #198 ) ;
#203 = ORIENTED_EDGE ( 'NONE', *, *, #104, .T. ) ;
#204 = ORIENTED_EDGE ( 'NONE', *, *, #93, .T. ) ;
#205 = LINE ( 'NONE', #5, #168 ) ;
#206 = COORDINATED_UNIVERSAL_TIME_OFFSET ( 5, 0, .BEHIND. ) ;
#207 = DIRECTION ( 'NONE',  ( -4.163336342344337000E-016, 1.000000000000000000, -0.0000000000000000000 ) ) ;
#208 = APPROVAL_ROLE ( '' ) ;
#209 = DIRECTION ( 'NONE',  ( 1.000000000000000000, 1.387778780781445700E-016, -0.0000000000000000000 ) ) ;
#210 = EDGE_LOOP ( 'NONE', ( #101, #69, #142, #235 ) ) ;
#211 = CC_DESIGN_APPROVAL ( #140, ( #112 ) ) ;
#212 = DATE_AND_TIME ( #150, #129 ) ;
#213 = DIRECTION ( 'NONE',  ( 1.000000000000000000, 1.387778780781445400E-016, -0.0000000000000000000 ) ) ;
#214 = LINE ( 'NONE', #98, #92 ) ;
#215 = CARTESIAN_POINT ( 'NONE',  ( -12.49999999999999800, 12.49999999999999600, 3.000000000000000000 ) ) ;
#216 = ORIENTED_EDGE ( 'NONE', *, *, #30, .F. ) ;
#217 = CC_DESIGN_DATE_AND_TIME_ASSIGNMENT ( #62, #27, ( #202 ) ) ;
#218 = LINE ( 'NONE', #191, #182 ) ;
#219 = CARTESIAN_POINT ( 'NONE',  ( -12.49999999999999500, -12.50000000000000400, 3.000000000000000000 ) ) ;
#220 = DATE_TIME_ROLE ( 'creation_date' ) ;
#221 = CARTESIAN_POINT ( 'NONE',  ( 12.50000000000000500, -12.50000000000000000, 0.0000000000000000000 ) ) ;
#222 = FACE_OUTER_BOUND ( 'NONE', #146, .T. ) ;
#223 = AXIS2_PLACEMENT_3D ( 'NONE', #196, #45, #134 ) ;
#224 = DIRECTION ( 'NONE',  ( -1.387778780781445400E-016, 1.000000000000000000, 0.0000000000000000000 ) ) ;
#225 = DIRECTION ( 'NONE',  ( -0.0000000000000000000, -0.0000000000000000000, -1.000000000000000000 ) ) ;
#226 = SHAPE_DEFINITION_REPRESENTATION ( #95, #31 ) ;
#227 = COORDINATED_UNIVERSAL_TIME_OFFSET ( 5, 0, .BEHIND. ) ;
#228 = APPROVAL ( #185, 'UNSPECIFIED' ) ;
#229 = VECTOR ( 'NONE', #209, 1000.000000000000000 ) ;
#230 = PERSON_AND_ORGANIZATION_ROLE ( 'design_supplier' ) ;
#231 = ORIENTED_EDGE ( 'NONE', *, *, #166, .F. ) ;
#232 = CC_DESIGN_PERSON_AND_ORGANIZATION_ASSIGNMENT ( #73, #200, ( #151 ) ) ;
#233 = PERSON_AND_ORGANIZATION ( #87, #122 ) ;
#234 = DIRECTION ( 'NONE',  ( -1.000000000000000000, -1.387778780781445400E-016, 0.0000000000000000000 ) ) ;
#235 = ORIENTED_EDGE ( 'NONE', *, *, #52, .F. ) ;
#236 = APPROVAL_PERSON_ORGANIZATION ( #161, #140, #208 ) ;
#237 = EDGE_CURVE ( 'NONE', #116, #148, #7, .T. ) ;
ENDSEC;
END-ISO-10303-21;
