ISO-10303-21;
HEADER;
FILE_DESCRIPTION (( 'STEP AP203' ),
    '1' );
FILE_NAME ('Web Model 43365_15988.step',
    '2020-10-21T18:17:24',
    ( '' ),
    ( '' ),
    'SwSTEP 2.0',
    'SolidWorks 2018',
    '' );
FILE_SCHEMA (( 'CONFIG_CONTROL_DESIGN' ));
ENDSEC;

DATA;
#1 = DIRECTION ( 'NONE',  ( -0.0000000000000000000, -0.0000000000000000000, -1.000000000000000000 ) ) ;
#2 = ORIENTED_EDGE ( 'NONE', *, *, #155, .T. ) ;
#3 = CARTESIAN_POINT ( 'NONE',  ( -2.499999999999999556, 0.0000000000000000000, 1.000000000000000000 ) ) ;
#4 = APPROVAL_DATE_TIME ( #138, #39 ) ;
#5 = DIRECTION ( 'NONE',  ( 1.000000000000000000, 0.0000000000000000000, 0.0000000000000000000 ) ) ;
#6 = AXIS2_PLACEMENT_3D ( 'NONE', #111, #107, #97 ) ;
#7 = CARTESIAN_POINT ( 'NONE',  ( 0.0000000000000000000, 0.0000000000000000000, 0.0000000000000000000 ) ) ;
#8 = LOCAL_TIME ( 14, 17, 24.00000000000000000, #49 ) ;
#9 = ORGANIZATION ( 'UNSPECIFIED', 'UNSPECIFIED', '' ) ;
#10 = APPROVAL_ROLE ( '' ) ;
#11 = APPLICATION_PROTOCOL_DEFINITION ( 'international standard', 'config_control_design', 1994, #148 ) ;
#12 = ADVANCED_FACE ( 'NONE', ( #100 ), #152, .T. ) ;
#13 = DATE_AND_TIME ( #119, #25 ) ;
#14 = VECTOR ( 'NONE', #36, 1000.000000000000000 ) ;
#15 = PERSON_AND_ORGANIZATION ( #60, #9 ) ;
#16 = CARTESIAN_POINT ( 'NONE',  ( 0.0000000000000000000, 0.0000000000000000000, 1.000000000000000000 ) ) ;
#17 =( GEOMETRIC_REPRESENTATION_CONTEXT ( 3 ) GLOBAL_UNCERTAINTY_ASSIGNED_CONTEXT ( ( #84 ) ) GLOBAL_UNIT_ASSIGNED_CONTEXT ( ( #23, #157, #80 ) ) REPRESENTATION_CONTEXT ( 'NONE', 'WORKASPACE' ) );
#18 = VERTEX_POINT ( 'NONE', #79 ) ;
#19 = CARTESIAN_POINT ( 'NONE',  ( -2.499999999999999556, 0.0000000000000000000, 0.0000000000000000000 ) ) ;
#20 = DIRECTION ( 'NONE',  ( 0.0000000000000000000, 0.0000000000000000000, 1.000000000000000000 ) ) ;
#21 = ORIENTED_EDGE ( 'NONE', *, *, #155, .F. ) ;
#22 = APPROVAL_DATE_TIME ( #65, #77 ) ;
#23 =( LENGTH_UNIT ( ) NAMED_UNIT ( * ) SI_UNIT ( .MILLI., .METRE. ) );
#24 = EDGE_CURVE ( 'NONE', #70, #174, #26, .T. ) ;
#25 = LOCAL_TIME ( 14, 17, 24.00000000000000000, #135 ) ;
#26 = CIRCLE ( 'NONE', #73, 2.499999999999999556 ) ;
#27 = APPROVAL_ROLE ( '' ) ;
#28 = APPROVAL_STATUS ( 'not_yet_approved' ) ;
#29 = AXIS2_PLACEMENT_3D ( 'NONE', #82, #50, #160 ) ;
#30 = PERSON_AND_ORGANIZATION ( #60, #9 ) ;
#31 = PERSON_AND_ORGANIZATION ( #60, #9 ) ;
#32 = FACE_OUTER_BOUND ( 'NONE', #93, .T. ) ;
#33 = CC_DESIGN_APPROVAL ( #77, ( #45 ) ) ;
#34 = ORIENTED_EDGE ( 'NONE', *, *, #24, .F. ) ;
#35 = LOCAL_TIME ( 14, 17, 24.00000000000000000, #115 ) ;
#36 = DIRECTION ( 'NONE',  ( -0.0000000000000000000, -0.0000000000000000000, -1.000000000000000000 ) ) ;
#37 = MANIFOLD_SOLID_BREP ( 'Boss-Extrude1', #56 ) ;
#38 = AXIS2_PLACEMENT_3D ( 'NONE', #171, #98, #5 ) ;
#39 = APPROVAL ( #28, 'UNSPECIFIED' ) ;
#40 = DIRECTION ( 'NONE',  ( -1.000000000000000000, 0.0000000000000000000, 0.0000000000000000000 ) ) ;
#41 = CC_DESIGN_PERSON_AND_ORGANIZATION_ASSIGNMENT ( #30, #112, ( #45 ) ) ;
#42 = APPROVAL_STATUS ( 'not_yet_approved' ) ;
#43 = ORIENTED_EDGE ( 'NONE', *, *, #62, .T. ) ;
#44 = PERSON_AND_ORGANIZATION_ROLE ( 'classification_officer' ) ;
#45 = PRODUCT_DEFINITION_FORMATION_WITH_SPECIFIED_SOURCE ( 'ANY', '', #150, .NOT_KNOWN. ) ;
#46 = PERSON_AND_ORGANIZATION ( #60, #9 ) ;
#47 = CIRCLE ( 'NONE', #6, 2.499999999999999556 ) ;
#48 = ADVANCED_BREP_SHAPE_REPRESENTATION ( 'Web Model 43365_15988', ( #37, #29 ), #17 ) ;
#49 = COORDINATED_UNIVERSAL_TIME_OFFSET ( 5, 0, .BEHIND. ) ;
#50 = DIRECTION ( 'NONE',  ( 0.0000000000000000000, 0.0000000000000000000, 1.000000000000000000 ) ) ;
#51 = DIRECTION ( 'NONE',  ( 1.000000000000000000, 0.0000000000000000000, -0.0000000000000000000 ) ) ;
#52 = LOCAL_TIME ( 14, 17, 24.00000000000000000, #91 ) ;
#53 = CARTESIAN_POINT ( 'NONE',  ( 0.0000000000000000000, 0.0000000000000000000, 0.0000000000000000000 ) ) ;
#54 = EDGE_CURVE ( 'NONE', #174, #123, #89, .T. ) ;
#55 = DIRECTION ( 'NONE',  ( 1.000000000000000000, 0.0000000000000000000, -0.0000000000000000000 ) ) ;
#56 = CLOSED_SHELL ( 'NONE', ( #162, #12, #71, #59 ) ) ;
#57 = ORIENTED_EDGE ( 'NONE', *, *, #24, .T. ) ;
#58 = PRODUCT_DEFINITION_SHAPE ( 'NONE', 'NONE',  #173 ) ;
#59 = ADVANCED_FACE ( 'NONE', ( #32 ), #129, .F. ) ;
#60 = PERSON ( 'UNSPECIFIED', 'UNSPECIFIED', 'UNSPECIFIED', ('UNSPECIFIED'), ('UNSPECIFIED'), ('UNSPECIFIED') ) ;
#61 = SHAPE_DEFINITION_REPRESENTATION ( #58, #48 ) ;
#62 = EDGE_CURVE ( 'NONE', #123, #18, #47, .T. ) ;
#63 = ORIENTED_EDGE ( 'NONE', *, *, #153, .T. ) ;
#64 = CIRCLE ( 'NONE', #146, 2.499999999999999556 ) ;
#65 = DATE_AND_TIME ( #101, #8 ) ;
#66 = CARTESIAN_POINT ( 'NONE',  ( -2.499999999999999556, 0.0000000000000000000, 1.000000000000000000 ) ) ;
#67 = DIRECTION ( 'NONE',  ( 1.000000000000000000, 0.0000000000000000000, 0.0000000000000000000 ) ) ;
#68 = ORIENTED_EDGE ( 'NONE', *, *, #166, .F. ) ;
#69 = CC_DESIGN_PERSON_AND_ORGANIZATION_ASSIGNMENT ( #167, #172, ( #173 ) ) ;
#70 = VERTEX_POINT ( 'NONE', #96 ) ;
#71 = ADVANCED_FACE ( 'NONE', ( #120 ), #170, .T. ) ;
#72 = SECURITY_CLASSIFICATION_LEVEL ( 'unclassified' ) ;
#73 = AXIS2_PLACEMENT_3D ( 'NONE', #104, #20, #67 ) ;
#74 = APPROVAL_DATE_TIME ( #108, #161 ) ;
#75 = COORDINATED_UNIVERSAL_TIME_OFFSET ( 5, 0, .BEHIND. ) ;
#76 = ORIENTED_EDGE ( 'NONE', *, *, #153, .F. ) ;
#77 = APPROVAL ( #42, 'UNSPECIFIED' ) ;
#78 = SECURITY_CLASSIFICATION ( '', '', #72 ) ;
#79 = CARTESIAN_POINT ( 'NONE',  ( 2.499999999999999556, 3.061616997868382648E-16, 0.0000000000000000000 ) ) ;
#80 =( NAMED_UNIT ( * ) SI_UNIT ( $, .STERADIAN. ) SOLID_ANGLE_UNIT ( ) );
#81 = DATE_AND_TIME ( #149, #52 ) ;
#82 = CARTESIAN_POINT ( 'NONE',  ( 0.0000000000000000000, 0.0000000000000000000, 0.0000000000000000000 ) ) ;
#83 = CC_DESIGN_APPROVAL ( #161, ( #78 ) ) ;
#84 = UNCERTAINTY_MEASURE_WITH_UNIT (LENGTH_MEASURE( 1.000000000000000082E-05 ), #23, 'distance_accuracy_value', 'NONE');
#85 = APPROVAL_STATUS ( 'not_yet_approved' ) ;
#86 = CC_DESIGN_PERSON_AND_ORGANIZATION_ASSIGNMENT ( #128, #132, ( #45 ) ) ;
#87 = LOCAL_TIME ( 14, 17, 24.00000000000000000, #75 ) ;
#88 = CC_DESIGN_DATE_AND_TIME_ASSIGNMENT ( #81, #113, ( #78 ) ) ;
#89 = LINE ( 'NONE', #3, #14 ) ;
#90 = CYLINDRICAL_SURFACE ( 'NONE', #165, 2.499999999999999556 ) ;
#91 = COORDINATED_UNIVERSAL_TIME_OFFSET ( 5, 0, .BEHIND. ) ;
#92 = CC_DESIGN_SECURITY_CLASSIFICATION ( #78, ( #45 ) ) ;
#93 = EDGE_LOOP ( 'NONE', ( #154, #76 ) ) ;
#94 = DIRECTION ( 'NONE',  ( 0.0000000000000000000, 0.0000000000000000000, 1.000000000000000000 ) ) ;
#95 = APPLICATION_PROTOCOL_DEFINITION ( 'international standard', 'config_control_design', 1994, #144 ) ;
#96 = CARTESIAN_POINT ( 'NONE',  ( 2.499999999999999556, 3.061616997868382648E-16, 1.000000000000000000 ) ) ;
#97 = DIRECTION ( 'NONE',  ( 1.000000000000000000, 0.0000000000000000000, 0.0000000000000000000 ) ) ;
#98 = DIRECTION ( 'NONE',  ( 0.0000000000000000000, 0.0000000000000000000, 1.000000000000000000 ) ) ;
#99 = MECHANICAL_CONTEXT ( 'NONE', #144, 'mechanical' ) ;
#100 = FACE_OUTER_BOUND ( 'NONE', #127, .T. ) ;
#101 = CALENDAR_DATE ( 2020, 21, 10 ) ;
#102 = PRODUCT_RELATED_PRODUCT_CATEGORY ( 'detail', '', ( #150 ) ) ;
#103 = CALENDAR_DATE ( 2020, 21, 10 ) ;
#104 = CARTESIAN_POINT ( 'NONE',  ( 0.0000000000000000000, 0.0000000000000000000, 1.000000000000000000 ) ) ;
#105 = DESIGN_CONTEXT ( 'detailed design', #148, 'design' ) ;
#106 = CARTESIAN_POINT ( 'NONE',  ( 0.0000000000000000000, 0.0000000000000000000, 1.000000000000000000 ) ) ;
#107 = DIRECTION ( 'NONE',  ( 0.0000000000000000000, 0.0000000000000000000, 1.000000000000000000 ) ) ;
#108 = DATE_AND_TIME ( #103, #35 ) ;
#109 = CC_DESIGN_APPROVAL ( #39, ( #173 ) ) ;
#110 = DIRECTION ( 'NONE',  ( -0.0000000000000000000, -0.0000000000000000000, -1.000000000000000000 ) ) ;
#111 = CARTESIAN_POINT ( 'NONE',  ( 0.0000000000000000000, 0.0000000000000000000, 0.0000000000000000000 ) ) ;
#112 = PERSON_AND_ORGANIZATION_ROLE ( 'creator' ) ;
#113 = DATE_TIME_ROLE ( 'classification_date' ) ;
#114 = APPROVAL_PERSON_ORGANIZATION ( #46, #161, #133 ) ;
#115 = COORDINATED_UNIVERSAL_TIME_OFFSET ( 5, 0, .BEHIND. ) ;
#116 = APPROVAL_PERSON_ORGANIZATION ( #31, #39, #27 ) ;
#117 = DIRECTION ( 'NONE',  ( -1.000000000000000000, 0.0000000000000000000, 0.0000000000000000000 ) ) ;
#118 = DIRECTION ( 'NONE',  ( 0.0000000000000000000, 0.0000000000000000000, 1.000000000000000000 ) ) ;
#119 = CALENDAR_DATE ( 2020, 21, 10 ) ;
#120 = FACE_OUTER_BOUND ( 'NONE', #169, .T. ) ;
#121 = DATE_TIME_ROLE ( 'creation_date' ) ;
#122 = CALENDAR_DATE ( 2020, 21, 10 ) ;
#123 = VERTEX_POINT ( 'NONE', #19 ) ;
#124 = PERSON_AND_ORGANIZATION ( #60, #9 ) ;
#125 = APPROVAL_PERSON_ORGANIZATION ( #163, #77, #10 ) ;
#126 = ORIENTED_EDGE ( 'NONE', *, *, #166, .T. ) ;
#127 = EDGE_LOOP ( 'NONE', ( #68, #21, #159, #43 ) ) ;
#128 = PERSON_AND_ORGANIZATION ( #60, #9 ) ;
#129 = PLANE ( 'NONE',  #140 ) ;
#130 = CC_DESIGN_PERSON_AND_ORGANIZATION_ASSIGNMENT ( #124, #136, ( #150 ) ) ;
#131 = DIRECTION ( 'NONE',  ( -0.0000000000000000000, -0.0000000000000000000, -1.000000000000000000 ) ) ;
#132 = PERSON_AND_ORGANIZATION_ROLE ( 'design_supplier' ) ;
#133 = APPROVAL_ROLE ( '' ) ;
#134 = FACE_OUTER_BOUND ( 'NONE', #147, .T. ) ;
#135 = COORDINATED_UNIVERSAL_TIME_OFFSET ( 5, 0, .BEHIND. ) ;
#136 = PERSON_AND_ORGANIZATION_ROLE ( 'design_owner' ) ;
#137 = CC_DESIGN_PERSON_AND_ORGANIZATION_ASSIGNMENT ( #15, #44, ( #78 ) ) ;
#138 = DATE_AND_TIME ( #122, #87 ) ;
#139 = VECTOR ( 'NONE', #131, 1000.000000000000000 ) ;
#140 = AXIS2_PLACEMENT_3D ( 'NONE', #7, #158, #51 ) ;
#141 = CC_DESIGN_DATE_AND_TIME_ASSIGNMENT ( #13, #121, ( #173 ) ) ;
#142 = CARTESIAN_POINT ( 'NONE',  ( 0.0000000000000000000, 0.0000000000000000000, 1.000000000000000000 ) ) ;
#143 = DIRECTION ( 'NONE',  ( 1.000000000000000000, 0.0000000000000000000, 0.0000000000000000000 ) ) ;
#144 = APPLICATION_CONTEXT ( 'configuration controlled 3d designs of mechanical parts and assemblies' ) ;
#145 = CARTESIAN_POINT ( 'NONE',  ( 2.499999999999999556, 3.061616997868382648E-16, 1.000000000000000000 ) ) ;
#146 = AXIS2_PLACEMENT_3D ( 'NONE', #53, #94, #143 ) ;
#147 = EDGE_LOOP ( 'NONE', ( #34, #126, #63, #164 ) ) ;
#148 = APPLICATION_CONTEXT ( 'configuration controlled 3d designs of mechanical parts and assemblies' ) ;
#149 = CALENDAR_DATE ( 2020, 21, 10 ) ;
#150 = PRODUCT ( 'Web Model 43365_15988', 'Web Model 43365_15988', '', ( #99 ) ) ;
#151 = AXIS2_PLACEMENT_3D ( 'NONE', #106, #118, #55 ) ;
#152 = CYLINDRICAL_SURFACE ( 'NONE', #175, 2.499999999999999556 ) ;
#153 = EDGE_CURVE ( 'NONE', #18, #123, #64, .T. ) ;
#154 = ORIENTED_EDGE ( 'NONE', *, *, #62, .F. ) ;
#155 = EDGE_CURVE ( 'NONE', #174, #70, #156, .T. ) ;
#156 = CIRCLE ( 'NONE', #38, 2.499999999999999556 ) ;
#157 =( NAMED_UNIT ( * ) PLANE_ANGLE_UNIT ( ) SI_UNIT ( $, .RADIAN. ) );
#158 = DIRECTION ( 'NONE',  ( 0.0000000000000000000, 0.0000000000000000000, 1.000000000000000000 ) ) ;
#159 = ORIENTED_EDGE ( 'NONE', *, *, #54, .T. ) ;
#160 = DIRECTION ( 'NONE',  ( 1.000000000000000000, 0.0000000000000000000, 0.0000000000000000000 ) ) ;
#161 = APPROVAL ( #85, 'UNSPECIFIED' ) ;
#162 = ADVANCED_FACE ( 'NONE', ( #134 ), #90, .T. ) ;
#163 = PERSON_AND_ORGANIZATION ( #60, #9 ) ;
#164 = ORIENTED_EDGE ( 'NONE', *, *, #54, .F. ) ;
#165 = AXIS2_PLACEMENT_3D ( 'NONE', #142, #110, #40 ) ;
#166 = EDGE_CURVE ( 'NONE', #70, #18, #168, .T. ) ;
#167 = PERSON_AND_ORGANIZATION ( #60, #9 ) ;
#168 = LINE ( 'NONE', #145, #139 ) ;
#169 = EDGE_LOOP ( 'NONE', ( #2, #57 ) ) ;
#170 = PLANE ( 'NONE',  #151 ) ;
#171 = CARTESIAN_POINT ( 'NONE',  ( 0.0000000000000000000, 0.0000000000000000000, 1.000000000000000000 ) ) ;
#172 = PERSON_AND_ORGANIZATION_ROLE ( 'creator' ) ;
#173 = PRODUCT_DEFINITION ( 'UNKNOWN', '', #45, #105 ) ;
#174 = VERTEX_POINT ( 'NONE', #66 ) ;
#175 = AXIS2_PLACEMENT_3D ( 'NONE', #16, #1, #117 ) ;
ENDSEC;
END-ISO-10303-21;
