ISO-10303-21;
HEADER;
FILE_DESCRIPTION (( 'STEP AP203' ),
    '1' );
FILE_NAME ('Web Model 15467_15469.step',
    '2020-08-11T20:41:49',
    ( '' ),
    ( '' ),
    'SwSTEP 2.0',
    'SolidWorks 2018',
    '' );
FILE_SCHEMA (( 'CONFIG_CONTROL_DESIGN' ));
ENDSEC;

DATA;
#1 = EDGE_CURVE ( 'NONE', #88, #175, #118, .T. ) ;
#2 = DIRECTION ( 'NONE',  ( 1.000000000000000000, 0.0000000000000000000, 0.0000000000000000000 ) ) ;
#3 = DIRECTION ( 'NONE',  ( -1.000000000000000000, 0.0000000000000000000, 0.0000000000000000000 ) ) ;
#4 = LINE ( 'NONE', #109, #173 ) ;
#5 = PERSON_AND_ORGANIZATION_ROLE ( 'classification_officer' ) ;
#6 =( NAMED_UNIT ( * ) PLANE_ANGLE_UNIT ( ) SI_UNIT ( $, .RADIAN. ) );
#7 = CC_DESIGN_PERSON_AND_ORGANIZATION_ASSIGNMENT ( #67, #83, ( #172 ) ) ;
#8 = FACE_OUTER_BOUND ( 'NONE', #68, .T. ) ;
#9 = SHAPE_DEFINITION_REPRESENTATION ( #10, #137 ) ;
#10 = PRODUCT_DEFINITION_SHAPE ( 'NONE', 'NONE',  #172 ) ;
#11 = ORIENTED_EDGE ( 'NONE', *, *, #30, .T. ) ;
#12 = AXIS2_PLACEMENT_3D ( 'NONE', #79, #114, #32 ) ;
#13 = APPROVAL_PERSON_ORGANIZATION ( #155, #82, #154 ) ;
#14 = COORDINATED_UNIVERSAL_TIME_OFFSET ( 5, 0, .BEHIND. ) ;
#15 = CIRCLE ( 'NONE', #101, 6.250000000000000000 ) ;
#16 = PRODUCT_DEFINITION_FORMATION_WITH_SPECIFIED_SOURCE ( 'ANY', '', #91, .NOT_KNOWN. ) ;
#17 = CC_DESIGN_PERSON_AND_ORGANIZATION_ASSIGNMENT ( #92, #128, ( #16 ) ) ;
#18 = APPROVAL_PERSON_ORGANIZATION ( #144, #89, #143 ) ;
#19 = APPROVAL_DATE_TIME ( #27, #152 ) ;
#20 = DIRECTION ( 'NONE',  ( 1.000000000000000000, 0.0000000000000000000, 0.0000000000000000000 ) ) ;
#21 = MANIFOLD_SOLID_BREP ( 'Boss-Extrude1', #136 ) ;
#22 = CC_DESIGN_PERSON_AND_ORGANIZATION_ASSIGNMENT ( #141, #36, ( #91 ) ) ;
#23 = ORIENTED_EDGE ( 'NONE', *, *, #26, .T. ) ;
#24 = CARTESIAN_POINT ( 'NONE',  ( 0.0000000000000000000, 0.0000000000000000000, 0.0000000000000000000 ) ) ;
#25 = APPROVAL_STATUS ( 'not_yet_approved' ) ;
#26 = EDGE_CURVE ( 'NONE', #149, #49, #43, .T. ) ;
#27 = DATE_AND_TIME ( #104, #103 ) ;
#28 = PERSON_AND_ORGANIZATION ( #158, #174 ) ;
#29 = ORIENTED_EDGE ( 'NONE', *, *, #1, .T. ) ;
#30 = EDGE_CURVE ( 'NONE', #88, #49, #4, .T. ) ;
#31 = CARTESIAN_POINT ( 'NONE',  ( 0.0000000000000000000, 0.0000000000000000000, 1.000000000000000000 ) ) ;
#32 = DIRECTION ( 'NONE',  ( -1.000000000000000000, 0.0000000000000000000, 0.0000000000000000000 ) ) ;
#33 = EDGE_CURVE ( 'NONE', #175, #149, #106, .T. ) ;
#34 =( LENGTH_UNIT ( ) NAMED_UNIT ( * ) SI_UNIT ( .MILLI., .METRE. ) );
#35 = ADVANCED_FACE ( 'NONE', ( #147 ), #107, .T. ) ;
#36 = PERSON_AND_ORGANIZATION_ROLE ( 'design_owner' ) ;
#37 = CC_DESIGN_SECURITY_CLASSIFICATION ( #110, ( #16 ) ) ;
#38 = ORIENTED_EDGE ( 'NONE', *, *, #26, .F. ) ;
#39 = CIRCLE ( 'NONE', #76, 6.250000000000000000 ) ;
#40 = AXIS2_PLACEMENT_3D ( 'NONE', #42, #113, #70 ) ;
#41 = VECTOR ( 'NONE', #54, 1000.000000000000000 ) ;
#42 = CARTESIAN_POINT ( 'NONE',  ( 0.0000000000000000000, 0.0000000000000000000, 1.000000000000000000 ) ) ;
#43 = CIRCLE ( 'NONE', #66, 6.250000000000000000 ) ;
#44 = EDGE_LOOP ( 'NONE', ( #168, #159, #94, #23 ) ) ;
#45 = DATE_TIME_ROLE ( 'classification_date' ) ;
#46 = CARTESIAN_POINT ( 'NONE',  ( 0.0000000000000000000, 0.0000000000000000000, -1.000000000000000000 ) ) ;
#47 =( GEOMETRIC_REPRESENTATION_CONTEXT ( 3 ) GLOBAL_UNCERTAINTY_ASSIGNED_CONTEXT ( ( #78 ) ) GLOBAL_UNIT_ASSIGNED_CONTEXT ( ( #34, #6, #50 ) ) REPRESENTATION_CONTEXT ( 'NONE', 'WORKASPACE' ) );
#48 = PLANE ( 'NONE',  #75 ) ;
#49 = VERTEX_POINT ( 'NONE', #95 ) ;
#50 =( NAMED_UNIT ( * ) SI_UNIT ( $, .STERADIAN. ) SOLID_ANGLE_UNIT ( ) );
#51 = FACE_OUTER_BOUND ( 'NONE', #44, .T. ) ;
#52 = DATE_AND_TIME ( #125, #61 ) ;
#53 = PERSON_AND_ORGANIZATION ( #158, #174 ) ;
#54 = DIRECTION ( 'NONE',  ( -0.0000000000000000000, -0.0000000000000000000, -1.000000000000000000 ) ) ;
#55 = APPROVAL_DATE_TIME ( #73, #82 ) ;
#56 = AXIS2_PLACEMENT_3D ( 'NONE', #31, #96, #2 ) ;
#57 = ORIENTED_EDGE ( 'NONE', *, *, #122, .T. ) ;
#58 = DIRECTION ( 'NONE',  ( 0.0000000000000000000, 0.0000000000000000000, 1.000000000000000000 ) ) ;
#59 = APPROVAL_STATUS ( 'not_yet_approved' ) ;
#60 = CC_DESIGN_APPROVAL ( #152, ( #172 ) ) ;
#61 = LOCAL_TIME ( 16, 41, 49.00000000000000000, #14 ) ;
#62 = DIRECTION ( 'NONE',  ( 0.0000000000000000000, 0.0000000000000000000, 1.000000000000000000 ) ) ;
#63 = APPLICATION_CONTEXT ( 'configuration controlled 3d designs of mechanical parts and assemblies' ) ;
#64 = AXIS2_PLACEMENT_3D ( 'NONE', #124, #98, #3 ) ;
#65 = COORDINATED_UNIVERSAL_TIME_OFFSET ( 5, 0, .BEHIND. ) ;
#66 = AXIS2_PLACEMENT_3D ( 'NONE', #138, #58, #69 ) ;
#67 = PERSON_AND_ORGANIZATION ( #158, #174 ) ;
#68 = EDGE_LOOP ( 'NONE', ( #38, #121 ) ) ;
#69 = DIRECTION ( 'NONE',  ( 1.000000000000000000, 0.0000000000000000000, 0.0000000000000000000 ) ) ;
#70 = DIRECTION ( 'NONE',  ( 1.000000000000000000, 0.0000000000000000000, -0.0000000000000000000 ) ) ;
#71 = DATE_TIME_ROLE ( 'creation_date' ) ;
#72 = CARTESIAN_POINT ( 'NONE',  ( 0.0000000000000000000, 0.0000000000000000000, -1.000000000000000000 ) ) ;
#73 = DATE_AND_TIME ( #74, #90 ) ;
#74 = CALENDAR_DATE ( 2020, 11, 8 ) ;
#75 = AXIS2_PLACEMENT_3D ( 'NONE', #72, #86, #99 ) ;
#76 = AXIS2_PLACEMENT_3D ( 'NONE', #126, #151, #161 ) ;
#77 = DIRECTION ( 'NONE',  ( -0.0000000000000000000, -0.0000000000000000000, -1.000000000000000000 ) ) ;
#78 = UNCERTAINTY_MEASURE_WITH_UNIT (LENGTH_MEASURE( 1.000000000000000082E-05 ), #34, 'distance_accuracy_value', 'NONE');
#79 = CARTESIAN_POINT ( 'NONE',  ( 0.0000000000000000000, 0.0000000000000000000, 1.000000000000000000 ) ) ;
#80 = CARTESIAN_POINT ( 'NONE',  ( 6.250000000000000000, 7.654042494670957606E-16, 1.000000000000000000 ) ) ;
#81 = CALENDAR_DATE ( 2020, 11, 8 ) ;
#82 = APPROVAL ( #25, 'UNSPECIFIED' ) ;
#83 = PERSON_AND_ORGANIZATION_ROLE ( 'creator' ) ;
#84 = APPROVAL_ROLE ( '' ) ;
#85 = APPROVAL_DATE_TIME ( #162, #89 ) ;
#86 = DIRECTION ( 'NONE',  ( 0.0000000000000000000, 0.0000000000000000000, 1.000000000000000000 ) ) ;
#87 = CC_DESIGN_APPROVAL ( #89, ( #16 ) ) ;
#88 = VERTEX_POINT ( 'NONE', #80 ) ;
#89 = APPROVAL ( #166, 'UNSPECIFIED' ) ;
#90 = LOCAL_TIME ( 16, 41, 49.00000000000000000, #146 ) ;
#91 = PRODUCT ( 'Web Model 15467_15469', 'Web Model 15467_15469', '', ( #142 ) ) ;
#92 = PERSON_AND_ORGANIZATION ( #158, #174 ) ;
#93 = ORIENTED_EDGE ( 'NONE', *, *, #33, .F. ) ;
#94 = ORIENTED_EDGE ( 'NONE', *, *, #33, .T. ) ;
#95 = CARTESIAN_POINT ( 'NONE',  ( 6.250000000000000000, 7.654042494670957606E-16, -1.000000000000000000 ) ) ;
#96 = DIRECTION ( 'NONE',  ( 0.0000000000000000000, 0.0000000000000000000, 1.000000000000000000 ) ) ;
#97 = CC_DESIGN_APPROVAL ( #82, ( #110 ) ) ;
#98 = DIRECTION ( 'NONE',  ( -0.0000000000000000000, -0.0000000000000000000, -1.000000000000000000 ) ) ;
#99 = DIRECTION ( 'NONE',  ( 1.000000000000000000, 0.0000000000000000000, -0.0000000000000000000 ) ) ;
#100 = PERSON_AND_ORGANIZATION_ROLE ( 'design_supplier' ) ;
#101 = AXIS2_PLACEMENT_3D ( 'NONE', #46, #62, #20 ) ;
#102 = APPLICATION_PROTOCOL_DEFINITION ( 'international standard', 'config_control_design', 1994, #63 ) ;
#103 = LOCAL_TIME ( 16, 41, 49.00000000000000000, #65 ) ;
#104 = CALENDAR_DATE ( 2020, 11, 8 ) ;
#105 = DESIGN_CONTEXT ( 'detailed design', #127, 'design' ) ;
#106 = LINE ( 'NONE', #135, #41 ) ;
#107 = CYLINDRICAL_SURFACE ( 'NONE', #64, 6.250000000000000000 ) ;
#108 = ORIENTED_EDGE ( 'NONE', *, *, #160, .T. ) ;
#109 = CARTESIAN_POINT ( 'NONE',  ( 6.250000000000000000, 7.654042494670957606E-16, 1.000000000000000000 ) ) ;
#110 = SECURITY_CLASSIFICATION ( '', '', #165 ) ;
#111 = CYLINDRICAL_SURFACE ( 'NONE', #12, 6.250000000000000000 ) ;
#112 = CARTESIAN_POINT ( 'NONE',  ( -6.250000000000000000, 0.0000000000000000000, -1.000000000000000000 ) ) ;
#113 = DIRECTION ( 'NONE',  ( 0.0000000000000000000, 0.0000000000000000000, 1.000000000000000000 ) ) ;
#114 = DIRECTION ( 'NONE',  ( -0.0000000000000000000, -0.0000000000000000000, -1.000000000000000000 ) ) ;
#115 = DIRECTION ( 'NONE',  ( 0.0000000000000000000, 0.0000000000000000000, 1.000000000000000000 ) ) ;
#116 = CARTESIAN_POINT ( 'NONE',  ( -6.250000000000000000, 0.0000000000000000000, 1.000000000000000000 ) ) ;
#117 = DATE_AND_TIME ( #123, #157 ) ;
#118 = CIRCLE ( 'NONE', #56, 6.250000000000000000 ) ;
#119 = APPLICATION_PROTOCOL_DEFINITION ( 'international standard', 'config_control_design', 1994, #127 ) ;
#120 = CC_DESIGN_PERSON_AND_ORGANIZATION_ASSIGNMENT ( #167, #5, ( #110 ) ) ;
#121 = ORIENTED_EDGE ( 'NONE', *, *, #160, .F. ) ;
#122 = EDGE_CURVE ( 'NONE', #175, #88, #39, .T. ) ;
#123 = CALENDAR_DATE ( 2020, 11, 8 ) ;
#124 = CARTESIAN_POINT ( 'NONE',  ( 0.0000000000000000000, 0.0000000000000000000, 1.000000000000000000 ) ) ;
#125 = CALENDAR_DATE ( 2020, 11, 8 ) ;
#126 = CARTESIAN_POINT ( 'NONE',  ( 0.0000000000000000000, 0.0000000000000000000, 1.000000000000000000 ) ) ;
#127 = APPLICATION_CONTEXT ( 'configuration controlled 3d designs of mechanical parts and assemblies' ) ;
#128 = PERSON_AND_ORGANIZATION_ROLE ( 'creator' ) ;
#129 = DIRECTION ( 'NONE',  ( 1.000000000000000000, 0.0000000000000000000, 0.0000000000000000000 ) ) ;
#130 = COORDINATED_UNIVERSAL_TIME_OFFSET ( 5, 0, .BEHIND. ) ;
#131 = EDGE_LOOP ( 'NONE', ( #134, #11, #108, #93 ) ) ;
#132 = CC_DESIGN_PERSON_AND_ORGANIZATION_ASSIGNMENT ( #28, #100, ( #16 ) ) ;
#133 = COORDINATED_UNIVERSAL_TIME_OFFSET ( 5, 0, .BEHIND. ) ;
#134 = ORIENTED_EDGE ( 'NONE', *, *, #1, .F. ) ;
#135 = CARTESIAN_POINT ( 'NONE',  ( -6.250000000000000000, 0.0000000000000000000, 1.000000000000000000 ) ) ;
#136 = CLOSED_SHELL ( 'NONE', ( #35, #164, #153, #169 ) ) ;
#137 = ADVANCED_BREP_SHAPE_REPRESENTATION ( 'Web Model 15467_15469', ( #21, #156 ), #47 ) ;
#138 = CARTESIAN_POINT ( 'NONE',  ( 0.0000000000000000000, 0.0000000000000000000, -1.000000000000000000 ) ) ;
#139 = CC_DESIGN_DATE_AND_TIME_ASSIGNMENT ( #52, #45, ( #110 ) ) ;
#140 = APPROVAL_PERSON_ORGANIZATION ( #53, #152, #84 ) ;
#141 = PERSON_AND_ORGANIZATION ( #158, #174 ) ;
#142 = MECHANICAL_CONTEXT ( 'NONE', #63, 'mechanical' ) ;
#143 = APPROVAL_ROLE ( '' ) ;
#144 = PERSON_AND_ORGANIZATION ( #158, #174 ) ;
#145 = PRODUCT_RELATED_PRODUCT_CATEGORY ( 'detail', '', ( #91 ) ) ;
#146 = COORDINATED_UNIVERSAL_TIME_OFFSET ( 5, 0, .BEHIND. ) ;
#147 = FACE_OUTER_BOUND ( 'NONE', #131, .T. ) ;
#148 = FACE_OUTER_BOUND ( 'NONE', #171, .T. ) ;
#149 = VERTEX_POINT ( 'NONE', #112 ) ;
#150 = CC_DESIGN_DATE_AND_TIME_ASSIGNMENT ( #117, #71, ( #172 ) ) ;
#151 = DIRECTION ( 'NONE',  ( 0.0000000000000000000, 0.0000000000000000000, 1.000000000000000000 ) ) ;
#152 = APPROVAL ( #59, 'UNSPECIFIED' ) ;
#153 = ADVANCED_FACE ( 'NONE', ( #148 ), #163, .T. ) ;
#154 = APPROVAL_ROLE ( '' ) ;
#155 = PERSON_AND_ORGANIZATION ( #158, #174 ) ;
#156 = AXIS2_PLACEMENT_3D ( 'NONE', #24, #115, #129 ) ;
#157 = LOCAL_TIME ( 16, 41, 49.00000000000000000, #133 ) ;
#158 = PERSON ( 'UNSPECIFIED', 'UNSPECIFIED', 'UNSPECIFIED', ('UNSPECIFIED'), ('UNSPECIFIED'), ('UNSPECIFIED') ) ;
#159 = ORIENTED_EDGE ( 'NONE', *, *, #122, .F. ) ;
#160 = EDGE_CURVE ( 'NONE', #49, #149, #15, .T. ) ;
#161 = DIRECTION ( 'NONE',  ( 1.000000000000000000, 0.0000000000000000000, 0.0000000000000000000 ) ) ;
#162 = DATE_AND_TIME ( #81, #170 ) ;
#163 = PLANE ( 'NONE',  #40 ) ;
#164 = ADVANCED_FACE ( 'NONE', ( #51 ), #111, .T. ) ;
#165 = SECURITY_CLASSIFICATION_LEVEL ( 'unclassified' ) ;
#166 = APPROVAL_STATUS ( 'not_yet_approved' ) ;
#167 = PERSON_AND_ORGANIZATION ( #158, #174 ) ;
#168 = ORIENTED_EDGE ( 'NONE', *, *, #30, .F. ) ;
#169 = ADVANCED_FACE ( 'NONE', ( #8 ), #48, .F. ) ;
#170 = LOCAL_TIME ( 16, 41, 49.00000000000000000, #130 ) ;
#171 = EDGE_LOOP ( 'NONE', ( #57, #29 ) ) ;
#172 = PRODUCT_DEFINITION ( 'UNKNOWN', '', #16, #105 ) ;
#173 = VECTOR ( 'NONE', #77, 1000.000000000000000 ) ;
#174 = ORGANIZATION ( 'UNSPECIFIED', 'UNSPECIFIED', '' ) ;
#175 = VERTEX_POINT ( 'NONE', #116 ) ;
ENDSEC;
END-ISO-10303-21;
