ISO-10303-21;
HEADER;
FILE_DESCRIPTION (( 'STEP AP203' ),
    '1' );
FILE_NAME ('20195-E0W.STEP',
    '2009-09-14T20:52:21',
    ( 'Admin' ),
    ( 'Thorlabs, Inc.' ),
    'SwSTEP 2.0',
    'SolidWorks 2007',
    '' );
FILE_SCHEMA (( 'CONFIG_CONTROL_DESIGN' ));
ENDSEC;

DATA;
#1 = ORIENTED_EDGE ( 'NONE', *, *, #8, .T. ) ;
#2 = EDGE_LOOP ( 'NONE', ( #35, #4, #10 ) ) ;
#3 = EDGE_LOOP ( 'NONE', ( #7, #5, #6, #15 ) ) ;
#4 = ORIENTED_EDGE ( 'NONE', *, *, #33, .T. ) ;
#5 = ORIENTED_EDGE ( 'NONE', *, *, #11, .T. ) ;
#6 = ORIENTED_EDGE ( 'NONE', *, *, #29, .T. ) ;
#7 = ORIENTED_EDGE ( 'NONE', *, *, #26, .F. ) ;
#8 = EDGE_CURVE ( 'NONE', #44, #45, #46, .T. ) ;
#9 = ADVANCED_FACE ( 'NONE', ( #100 ), #93, .T. ) ;
#10 = ORIENTED_EDGE ( 'NONE', *, *, #11, .F. ) ;
#11 = EDGE_CURVE ( 'NONE', #12, #13, #120, .T. ) ;
#12 = VERTEX_POINT ( 'NONE', #103 ) ;
#13 = VERTEX_POINT ( 'NONE', #53 ) ;
#14 = EDGE_CURVE ( 'NONE', #13, #12, #110, .T. ) ;
#15 = ORIENTED_EDGE ( 'NONE', *, *, #8, .F. ) ;
#16 = ADVANCED_FACE ( 'NONE', ( #54 ), #122, .T. ) ;
#17 = ORIENTED_EDGE ( 'NONE', *, *, #14, .T. ) ;
#18 = MANIFOLD_SOLID_BREP ( 'NONE', #19 ) ;
#19 = CLOSED_SHELL ( 'NONE', ( #16, #30, #39, #34, #9 ) ) ;
#20 = ADVANCED_BREP_SHAPE_REPRESENTATION ( '20195-E0W', ( #18, #139 ), #21 ) ;
#21 =( GEOMETRIC_REPRESENTATION_CONTEXT ( 3 ) GLOBAL_UNCERTAINTY_ASSIGNED_CONTEXT ( ( #23 ) ) GLOBAL_UNIT_ASSIGNED_CONTEXT ( ( #61, #96, #95 ) ) REPRESENTATION_CONTEXT ( 'NONE', 'WORKASPACE' ) );
#22 = EDGE_LOOP ( 'NONE', ( #17, #28, #43, #24 ) ) ;
#23 = UNCERTAINTY_MEASURE_WITH_UNIT (LENGTH_MEASURE( 1.000000000000000100E-005 ), #61, 'distance_accuracy_value', 'NONE');
#24 = ORIENTED_EDGE ( 'NONE', *, *, #29, .F. ) ;
#25 = CC_DESIGN_APPROVAL ( #171, ( #174 ) ) ;
#26 = EDGE_CURVE ( 'NONE', #12, #44, #116, .T. ) ;
#27 = EDGE_CURVE ( 'NONE', #45, #44, #115, .T. ) ;
#28 = ORIENTED_EDGE ( 'NONE', *, *, #26, .T. ) ;
#29 = EDGE_CURVE ( 'NONE', #13, #45, #87, .T. ) ;
#30 = ADVANCED_FACE ( 'NONE', ( #58 ), #117, .T. ) ;
#31 = EDGE_CURVE ( 'NONE', #42, #12, #106, .T. ) ;
#32 = ORIENTED_EDGE ( 'NONE', *, *, #14, .F. ) ;
#33 = EDGE_CURVE ( 'NONE', #42, #13, #69, .T. ) ;
#34 = ADVANCED_FACE ( 'NONE', ( #70 ), #50, .T. ) ;
#35 = ORIENTED_EDGE ( 'NONE', *, *, #31, .F. ) ;
#36 = ORIENTED_EDGE ( 'NONE', *, *, #27, .T. ) ;
#37 = ORIENTED_EDGE ( 'NONE', *, *, #33, .F. ) ;
#38 = EDGE_LOOP ( 'NONE', ( #37, #41, #32 ) ) ;
#39 = ADVANCED_FACE ( 'NONE', ( #51 ), #89, .T. ) ;
#40 = EDGE_LOOP ( 'NONE', ( #36, #1 ) ) ;
#41 = ORIENTED_EDGE ( 'NONE', *, *, #31, .T. ) ;
#42 = VERTEX_POINT ( 'NONE', #84 ) ;
#43 = ORIENTED_EDGE ( 'NONE', *, *, #27, .F. ) ;
#44 = VERTEX_POINT ( 'NONE', #83 ) ;
#45 = VERTEX_POINT ( 'NONE', #82 ) ;
#46 = CIRCLE ( 'NONE', #76, 6.349999999999998800 ) ;
#47 = DIRECTION ( 'NONE',  ( 0.0000000000000000000, 3.061515884555942700E-016, -1.000000000000000000 ) ) ;
#48 = CARTESIAN_POINT ( 'NONE',  ( 0.0000000000000000000, 4.531043509142800400E-016, -1.180000000000001700 ) ) ;
#49 = AXIS2_PLACEMENT_3D ( 'NONE', #48, #47, #114 ) ;
#50 = SPHERICAL_SURFACE ( 'NONE', #73, 56.10600000000020100 ) ;
#51 = FACE_OUTER_BOUND ( 'NONE', #40, .T. ) ;
#52 = AXIS2_PLACEMENT_3D ( 'NONE', #56, #113, #81 ) ;
#53 = CARTESIAN_POINT ( 'NONE',  ( 0.0000000000000000000, 6.349999999999981900, 0.8194996928004815200 ) ) ;
#54 = FACE_OUTER_BOUND ( 'NONE', #22, .T. ) ;
#55 = DIRECTION ( 'NONE',  ( 0.0000000000000000000, 1.000000000000000000, 3.073328992872305200E-016 ) ) ;
#56 = CARTESIAN_POINT ( 'NONE',  ( 0.0000000000000000000, -1.590456561530610800E-016, 0.8194996928004829600 ) ) ;
#57 = AXIS2_PLACEMENT_3D ( 'NONE', #119, #118, #112 ) ;
#58 = FACE_OUTER_BOUND ( 'NONE', #38, .T. ) ;
#59 = DIRECTION ( 'NONE',  ( 0.0000000000000000000, 3.061515884555942700E-016, -1.000000000000000000 ) ) ;
#60 = VECTOR ( 'NONE', #59, 1000.000000000000000 ) ;
#61 =( LENGTH_UNIT ( ) NAMED_UNIT ( * ) SI_UNIT ( .MILLI., .METRE. ) );
#62 = DIRECTION ( 'NONE',  ( 0.0000000000000000000, 0.0000000000000000000, 1.000000000000000000 ) ) ;
#63 = DIRECTION ( 'NONE',  ( -1.000000000000000000, 0.0000000000000000000, 0.0000000000000000000 ) ) ;
#64 = CARTESIAN_POINT ( 'NONE',  ( 0.0000000000000000000, 6.601363010914935800E-015, -54.92600000000003000 ) ) ;
#65 = AXIS2_PLACEMENT_3D ( 'NONE', #64, #63, #62 ) ;
#66 = DIRECTION ( 'NONE',  ( 0.0000000000000000000, 3.061515884555942700E-016, -1.000000000000000000 ) ) ;
#67 = VECTOR ( 'NONE', #66, 1000.000000000000000 ) ;
#68 = CARTESIAN_POINT ( 'NONE',  ( 7.776250346772082600E-016, -6.349999999999988100, -1.180000000000001700 ) ) ;
#69 = CIRCLE ( 'NONE', #65, 56.10600000000020100 ) ;
#70 = FACE_OUTER_BOUND ( 'NONE', #2, .T. ) ;
#71 = DIRECTION ( 'NONE',  ( 0.0000000000000000000, 1.000000000000000000, 3.073328992872301300E-016 ) ) ;
#72 = DIRECTION ( 'NONE',  ( 0.0000000000000000000, 3.061515884555942700E-016, -1.000000000000000000 ) ) ;
#73 = AXIS2_PLACEMENT_3D ( 'NONE', #74, #91, #90 ) ;
#74 = CARTESIAN_POINT ( 'NONE',  ( 0.0000000000000000000, 6.601363010914935800E-015, -54.92600000000003000 ) ) ;
#75 = DIRECTION ( 'NONE',  ( 0.0000000000000000000, 1.000000000000000000, 3.073328992872301300E-016 ) ) ;
#76 = AXIS2_PLACEMENT_3D ( 'NONE', #77, #88, #92 ) ;
#77 = CARTESIAN_POINT ( 'NONE',  ( 0.0000000000000000000, 4.531043509142800400E-016, -1.180000000000001700 ) ) ;
#78 = DIRECTION ( 'NONE',  ( 0.0000000000000000000, 3.061515884555942700E-016, -1.000000000000000000 ) ) ;
#79 = CARTESIAN_POINT ( 'NONE',  ( 0.0000000000000000000, 4.531043509142797400E-016, -1.180000000000000600 ) ) ;
#80 = AXIS2_PLACEMENT_3D ( 'NONE', #79, #78, #85 ) ;
#81 = DIRECTION ( 'NONE',  ( 0.0000000000000000000, 1.000000000000000000, 3.073328992872305200E-016 ) ) ;
#82 = CARTESIAN_POINT ( 'NONE',  ( 0.0000000000000000000, 6.349999999999999600, -1.179999999999999900 ) ) ;
#83 = CARTESIAN_POINT ( 'NONE',  ( 7.776250346772093400E-016, -6.349999999999997900, -1.180000000000003700 ) ) ;
#84 = CARTESIAN_POINT ( 'NONE',  ( 0.0000000000000000000, -7.140189806596769500E-015, 1.180000000000167100 ) ) ;
#85 = DIRECTION ( 'NONE',  ( 0.0000000000000000000, 1.000000000000000000, 3.061515884555942700E-016 ) ) ;
#86 = CARTESIAN_POINT ( 'NONE',  ( 0.0000000000000000000, 6.349999999999989900, -1.179999999999997900 ) ) ;
#87 = LINE ( 'NONE', #86, #60 ) ;
#88 = DIRECTION ( 'NONE',  ( 0.0000000000000000000, 3.061515884555942700E-016, -1.000000000000000000 ) ) ;
#89 = PLANE ( 'NONE',  #80 ) ;
#90 = DIRECTION ( 'NONE',  ( 0.0000000000000000000, 1.000000000000000000, 2.473494422666810400E-016 ) ) ;
#91 = DIRECTION ( 'NONE',  ( 1.000000000000000000, 0.0000000000000000000, 0.0000000000000000000 ) ) ;
#92 = DIRECTION ( 'NONE',  ( 0.0000000000000000000, 1.000000000000000000, 3.073328992872296900E-016 ) ) ;
#93 = CYLINDRICAL_SURFACE ( 'NONE', #102, 6.349999999999989000 ) ;
#94 = PERSON_AND_ORGANIZATION ( #186, #185 ) ;
#95 =( NAMED_UNIT ( * ) SI_UNIT ( $, .STERADIAN. ) SOLID_ANGLE_UNIT ( ) );
#96 =( NAMED_UNIT ( * ) PLANE_ANGLE_UNIT ( ) SI_UNIT ( $, .RADIAN. ) );
#97 = CARTESIAN_POINT ( 'NONE',  ( 0.0000000000000000000, 4.531043509142794500E-016, -1.179999999999999900 ) ) ;
#98 = DIRECTION ( 'NONE',  ( -1.224606353822377000E-016, 1.000000000000000000, 0.0000000000000000000 ) ) ;
#99 = DIRECTION ( 'NONE',  ( 1.000000000000000000, 1.224606353822377300E-016, 3.749151804555343100E-032 ) ) ;
#100 = FACE_OUTER_BOUND ( 'NONE', #3, .T. ) ;
#101 = CARTESIAN_POINT ( 'NONE',  ( 0.0000000000000000000, 4.531043509142794500E-016, -1.179999999999999900 ) ) ;
#102 = AXIS2_PLACEMENT_3D ( 'NONE', #101, #111, #75 ) ;
#103 = CARTESIAN_POINT ( 'NONE',  ( 7.776250346772073700E-016, -6.349999999999992500, 0.8194996928004795200 ) ) ;
#104 = CARTESIAN_POINT ( 'NONE',  ( 0.0000000000000000000, 6.601363010914935800E-015, -54.92600000000003000 ) ) ;
#105 = AXIS2_PLACEMENT_3D ( 'NONE', #104, #99, #98 ) ;
#106 = CIRCLE ( 'NONE', #105, 56.10600000000020100 ) ;
#107 = DIRECTION ( 'NONE',  ( 0.0000000000000000000, 3.061515884555942700E-016, -1.000000000000000000 ) ) ;
#108 = CARTESIAN_POINT ( 'NONE',  ( 0.0000000000000000000, -1.590456561530610800E-016, 0.8194996928004829600 ) ) ;
#109 = AXIS2_PLACEMENT_3D ( 'NONE', #108, #107, #55 ) ;
#110 = CIRCLE ( 'NONE', #109, 6.349999999999981000 ) ;
#111 = DIRECTION ( 'NONE',  ( 0.0000000000000000000, 3.061515884555942700E-016, -1.000000000000000000 ) ) ;
#112 = DIRECTION ( 'NONE',  ( 0.0000000000000000000, 1.000000000000000000, 2.473494422666810400E-016 ) ) ;
#113 = DIRECTION ( 'NONE',  ( 0.0000000000000000000, 3.061515884555942700E-016, -1.000000000000000000 ) ) ;
#114 = DIRECTION ( 'NONE',  ( 0.0000000000000000000, 1.000000000000000000, 3.073328992872296900E-016 ) ) ;
#115 = CIRCLE ( 'NONE', #49, 6.349999999999998800 ) ;
#116 = LINE ( 'NONE', #68, #67 ) ;
#117 = SPHERICAL_SURFACE ( 'NONE', #57, 56.10600000000020100 ) ;
#118 = DIRECTION ( 'NONE',  ( 1.000000000000000000, 0.0000000000000000000, 0.0000000000000000000 ) ) ;
#119 = CARTESIAN_POINT ( 'NONE',  ( 0.0000000000000000000, 6.601363010914935800E-015, -54.92600000000003000 ) ) ;
#120 = CIRCLE ( 'NONE', #52, 6.349999999999981000 ) ;
#121 = AXIS2_PLACEMENT_3D ( 'NONE', #97, #72, #71 ) ;
#122 = CYLINDRICAL_SURFACE ( 'NONE', #121, 6.349999999999989000 ) ;
#123 = PERSON_AND_ORGANIZATION ( #186, #185 ) ;
#124 = SECURITY_CLASSIFICATION_LEVEL ( 'unclassified' ) ;
#125 = SECURITY_CLASSIFICATION ( '', '', #124 ) ;
#126 = PERSON_AND_ORGANIZATION_ROLE ( 'classification_officer' ) ;
#127 = CC_DESIGN_PERSON_AND_ORGANIZATION_ASSIGNMENT ( #123, #126, ( #125 ) ) ;
#128 = PERSON_AND_ORGANIZATION_ROLE ( 'design_supplier' ) ;
#129 = COORDINATED_UNIVERSAL_TIME_OFFSET ( 5, 0, .BEHIND. ) ;
#130 = LOCAL_TIME ( 16, 52, 21.00000000000000000, #129 ) ;
#131 = CALENDAR_DATE ( 2009, 14, 9 ) ;
#132 = DIRECTION ( 'NONE',  ( 0.0000000000000000000, 0.0000000000000000000, 1.000000000000000000 ) ) ;
#133 = CARTESIAN_POINT ( 'NONE',  ( 0.0000000000000000000, 0.0000000000000000000, 0.0000000000000000000 ) ) ;
#134 = CC_DESIGN_PERSON_AND_ORGANIZATION_ASSIGNMENT ( #94, #138, ( #174 ) ) ;
#135 = DATE_AND_TIME ( #131, #130 ) ;
#136 = DIRECTION ( 'NONE',  ( 1.000000000000000000, 0.0000000000000000000, 0.0000000000000000000 ) ) ;
#137 = DATE_TIME_ROLE ( 'classification_date' ) ;
#138 = PERSON_AND_ORGANIZATION_ROLE ( 'creator' ) ;
#139 = AXIS2_PLACEMENT_3D ( 'NONE', #133, #132, #136 ) ;
#140 = PERSON_AND_ORGANIZATION ( #186, #185 ) ;
#141 = CC_DESIGN_DATE_AND_TIME_ASSIGNMENT ( #135, #137, ( #125 ) ) ;
#142 = CC_DESIGN_PERSON_AND_ORGANIZATION_ASSIGNMENT ( #140, #128, ( #174 ) ) ;
#143 = MECHANICAL_CONTEXT ( 'NONE', #153, 'mechanical' ) ;
#144 = PRODUCT ( '20195-E0W', '20195-E0W', '', ( #143 ) ) ;
#145 = APPLICATION_PROTOCOL_DEFINITION ( 'international standard', 'config_control_design', 1994, #153 ) ;
#146 = APPROVAL_DATE_TIME ( #147, #161 ) ;
#147 = DATE_AND_TIME ( #148, #149 ) ;
#148 = CALENDAR_DATE ( 2009, 14, 9 ) ;
#149 = LOCAL_TIME ( 16, 52, 21.00000000000000000, #150 ) ;
#150 = COORDINATED_UNIVERSAL_TIME_OFFSET ( 5, 0, .BEHIND. ) ;
#151 = PRODUCT_DEFINITION ( 'UNKNOWN', '', #174, #152 ) ;
#152 = DESIGN_CONTEXT ( 'detailed design', #182, 'design' ) ;
#153 = APPLICATION_CONTEXT ( 'configuration controlled 3d designs of mechanical parts and assemblies' ) ;
#154 = DATE_AND_TIME ( #177, #178 ) ;
#155 = CC_DESIGN_PERSON_AND_ORGANIZATION_ASSIGNMENT ( #157, #156, ( #151 ) ) ;
#156 = PERSON_AND_ORGANIZATION_ROLE ( 'creator' ) ;
#157 = PERSON_AND_ORGANIZATION ( #186, #185 ) ;
#158 = CC_DESIGN_APPROVAL ( #161, ( #151 ) ) ;
#159 = APPROVAL_PERSON_ORGANIZATION ( #163, #161, #160 ) ;
#160 = APPROVAL_ROLE ( '' ) ;
#161 = APPROVAL ( #162, 'UNSPECIFIED' ) ;
#162 = APPROVAL_STATUS ( 'not_yet_approved' ) ;
#163 = PERSON_AND_ORGANIZATION ( #186, #185 ) ;
#164 = APPROVAL_DATE_TIME ( #165, #171 ) ;
#165 = DATE_AND_TIME ( #166, #167 ) ;
#166 = CALENDAR_DATE ( 2009, 14, 9 ) ;
#167 = LOCAL_TIME ( 16, 52, 21.00000000000000000, #168 ) ;
#168 = COORDINATED_UNIVERSAL_TIME_OFFSET ( 5, 0, .BEHIND. ) ;
#169 = APPROVAL_PERSON_ORGANIZATION ( #173, #171, #170 ) ;
#170 = APPROVAL_ROLE ( '' ) ;
#171 = APPROVAL ( #172, 'UNSPECIFIED' ) ;
#172 = APPROVAL_STATUS ( 'not_yet_approved' ) ;
#173 = PERSON_AND_ORGANIZATION ( #186, #185 ) ;
#174 = PRODUCT_DEFINITION_FORMATION_WITH_SPECIFIED_SOURCE ( 'ANY', '', #144, .NOT_KNOWN. ) ;
#175 = CC_DESIGN_DATE_AND_TIME_ASSIGNMENT ( #154, #176, ( #151 ) ) ;
#176 = DATE_TIME_ROLE ( 'creation_date' ) ;
#177 = CALENDAR_DATE ( 2009, 14, 9 ) ;
#178 = LOCAL_TIME ( 16, 52, 21.00000000000000000, #179 ) ;
#179 = COORDINATED_UNIVERSAL_TIME_OFFSET ( 5, 0, .BEHIND. ) ;
#180 = PERSON_AND_ORGANIZATION ( #186, #185 ) ;
#181 = APPLICATION_PROTOCOL_DEFINITION ( 'international standard', 'config_control_design', 1994, #182 ) ;
#182 = APPLICATION_CONTEXT ( 'configuration controlled 3d designs of mechanical parts and assemblies' ) ;
#183 = CC_DESIGN_PERSON_AND_ORGANIZATION_ASSIGNMENT ( #180, #184, ( #144 ) ) ;
#184 = PERSON_AND_ORGANIZATION_ROLE ( 'design_owner' ) ;
#185 = ORGANIZATION ( 'UNSPECIFIED', 'UNSPECIFIED', '' ) ;
#186 = PERSON ( 'UNSPECIFIED', 'UNSPECIFIED', 'UNSPECIFIED', ('UNSPECIFIED'), ('UNSPECIFIED'), ('UNSPECIFIED') ) ;
#187 = APPROVAL_PERSON_ORGANIZATION ( #188, #200, #195 ) ;
#188 = PERSON_AND_ORGANIZATION ( #186, #185 ) ;
#189 = PRODUCT_RELATED_PRODUCT_CATEGORY ( 'detail', '', ( #144 ) ) ;
#190 = APPROVAL_DATE_TIME ( #194, #200 ) ;
#191 = LOCAL_TIME ( 16, 52, 21.00000000000000000, #197 ) ;
#192 = PRODUCT_DEFINITION_SHAPE ( 'NONE', 'NONE',  #151 ) ;
#193 = APPROVAL_STATUS ( 'not_yet_approved' ) ;
#194 = DATE_AND_TIME ( #196, #191 ) ;
#195 = APPROVAL_ROLE ( '' ) ;
#196 = CALENDAR_DATE ( 2009, 14, 9 ) ;
#197 = COORDINATED_UNIVERSAL_TIME_OFFSET ( 5, 0, .BEHIND. ) ;
#198 = CC_DESIGN_APPROVAL ( #200, ( #125 ) ) ;
#199 = SHAPE_DEFINITION_REPRESENTATION ( #192, #20 ) ;
#200 = APPROVAL ( #193, 'UNSPECIFIED' ) ;
#201 = CC_DESIGN_SECURITY_CLASSIFICATION ( #125, ( #174 ) ) ;
ENDSEC;
END-ISO-10303-21;
