ISO-10303-21;
HEADER;
FILE_DESCRIPTION (( 'STEP AP203' ),
    '1' );
FILE_NAME ('Web Model 15423_15439.step',
    '2020-07-31T18:42:41',
    ( '' ),
    ( '' ),
    'SwSTEP 2.0',
    'SolidWorks 2018',
    '' );
FILE_SCHEMA (( 'CONFIG_CONTROL_DESIGN' ));
ENDSEC;

DATA;
#1 = FACE_OUTER_BOUND ( 'NONE', #24, .T. ) ;
#2 = CC_DESIGN_SECURITY_CLASSIFICATION ( #38, ( #111 ) ) ;
#3 = DIRECTION ( 'NONE',  ( 0.0000000000000000000, 0.0000000000000000000, 1.000000000000000000 ) ) ;
#4 = ORIENTED_EDGE ( 'NONE', *, *, #125, .F. ) ;
#5 = CLOSED_SHELL ( 'NONE', ( #50, #134, #154, #17 ) ) ;
#6 = DIRECTION ( 'NONE',  ( 1.000000000000000000, 0.0000000000000000000, 0.0000000000000000000 ) ) ;
#7 = DATE_AND_TIME ( #163, #98 ) ;
#8 =( NAMED_UNIT ( * ) PLANE_ANGLE_UNIT ( ) SI_UNIT ( $, .RADIAN. ) );
#9 = APPROVAL_ROLE ( '' ) ;
#10 = EDGE_CURVE ( 'NONE', #102, #19, #46, .T. ) ;
#11 = COORDINATED_UNIVERSAL_TIME_OFFSET ( 5, 0, .BEHIND. ) ;
#12 = PERSON_AND_ORGANIZATION ( #164, #83 ) ;
#13 = ORIENTED_EDGE ( 'NONE', *, *, #10, .F. ) ;
#14 = CIRCLE ( 'NONE', #155, 6.349999999999999645 ) ;
#15 = DIRECTION ( 'NONE',  ( -0.0000000000000000000, -0.0000000000000000000, -1.000000000000000000 ) ) ;
#16 = CARTESIAN_POINT ( 'NONE',  ( 0.0000000000000000000, 0.0000000000000000000, 0.0000000000000000000 ) ) ;
#17 = ADVANCED_FACE ( 'NONE', ( #28 ), #95, .F. ) ;
#18 = CARTESIAN_POINT ( 'NONE',  ( 0.0000000000000000000, 0.0000000000000000000, 1.500000000000000000 ) ) ;
#19 = VERTEX_POINT ( 'NONE', #174 ) ;
#20 = DIRECTION ( 'NONE',  ( 1.000000000000000000, 0.0000000000000000000, -0.0000000000000000000 ) ) ;
#21 = DATE_TIME_ROLE ( 'creation_date' ) ;
#22 = DATE_AND_TIME ( #51, #71 ) ;
#23 = CYLINDRICAL_SURFACE ( 'NONE', #29, 6.349999999999999645 ) ;
#24 = EDGE_LOOP ( 'NONE', ( #13, #130, #91, #32 ) ) ;
#25 = APPLICATION_CONTEXT ( 'configuration controlled 3d designs of mechanical parts and assemblies' ) ;
#26 = PERSON_AND_ORGANIZATION_ROLE ( 'creator' ) ;
#27 = COORDINATED_UNIVERSAL_TIME_OFFSET ( 5, 0, .BEHIND. ) ;
#28 = FACE_OUTER_BOUND ( 'NONE', #166, .T. ) ;
#29 = AXIS2_PLACEMENT_3D ( 'NONE', #18, #108, #69 ) ;
#30 = PERSON_AND_ORGANIZATION ( #164, #83 ) ;
#31 = CARTESIAN_POINT ( 'NONE',  ( 0.0000000000000000000, 0.0000000000000000000, -1.500000000000000000 ) ) ;
#32 = ORIENTED_EDGE ( 'NONE', *, *, #136, .F. ) ;
#33 = DIRECTION ( 'NONE',  ( -0.0000000000000000000, -0.0000000000000000000, -1.000000000000000000 ) ) ;
#34 = AXIS2_PLACEMENT_3D ( 'NONE', #132, #70, #20 ) ;
#35 = CARTESIAN_POINT ( 'NONE',  ( 0.0000000000000000000, 0.0000000000000000000, 1.500000000000000000 ) ) ;
#36 = CARTESIAN_POINT ( 'NONE',  ( -6.349999999999999645, 0.0000000000000000000, 1.500000000000000000 ) ) ;
#37 =( LENGTH_UNIT ( ) NAMED_UNIT ( * ) SI_UNIT ( .MILLI., .METRE. ) );
#38 = SECURITY_CLASSIFICATION ( '', '', #116 ) ;
#39 = PERSON_AND_ORGANIZATION_ROLE ( 'classification_officer' ) ;
#40 = DIRECTION ( 'NONE',  ( 1.000000000000000000, 0.0000000000000000000, 0.0000000000000000000 ) ) ;
#41 = FACE_OUTER_BOUND ( 'NONE', #47, .T. ) ;
#42 = PERSON_AND_ORGANIZATION ( #164, #83 ) ;
#43 = APPROVAL_ROLE ( '' ) ;
#44 = LOCAL_TIME ( 14, 42, 41.00000000000000000, #88 ) ;
#45 = CC_DESIGN_PERSON_AND_ORGANIZATION_ASSIGNMENT ( #12, #159, ( #150 ) ) ;
#46 = CIRCLE ( 'NONE', #60, 6.349999999999999645 ) ;
#47 = EDGE_LOOP ( 'NONE', ( #55, #120 ) ) ;
#48 = ADVANCED_BREP_SHAPE_REPRESENTATION ( 'Web Model 15423_15439', ( #144, #94 ), #118 ) ;
#49 = VERTEX_POINT ( 'NONE', #143 ) ;
#50 = ADVANCED_FACE ( 'NONE', ( #1 ), #79, .T. ) ;
#51 = CALENDAR_DATE ( 2020, 31, 7 ) ;
#52 = AXIS2_PLACEMENT_3D ( 'NONE', #81, #106, #123 ) ;
#53 = DIRECTION ( 'NONE',  ( 1.000000000000000000, 0.0000000000000000000, -0.0000000000000000000 ) ) ;
#54 = APPLICATION_CONTEXT ( 'configuration controlled 3d designs of mechanical parts and assemblies' ) ;
#55 = ORIENTED_EDGE ( 'NONE', *, *, #148, .T. ) ;
#56 = APPLICATION_PROTOCOL_DEFINITION ( 'international standard', 'config_control_design', 1994, #25 ) ;
#57 = APPROVAL_STATUS ( 'not_yet_approved' ) ;
#58 = CC_DESIGN_PERSON_AND_ORGANIZATION_ASSIGNMENT ( #42, #26, ( #101 ) ) ;
#59 = LOCAL_TIME ( 14, 42, 41.00000000000000000, #11 ) ;
#60 = AXIS2_PLACEMENT_3D ( 'NONE', #152, #3, #109 ) ;
#61 = ORIENTED_EDGE ( 'NONE', *, *, #148, .F. ) ;
#62 = AXIS2_PLACEMENT_3D ( 'NONE', #127, #170, #112 ) ;
#63 = DATE_AND_TIME ( #151, #59 ) ;
#64 = VECTOR ( 'NONE', #33, 1000.000000000000000 ) ;
#65 = VERTEX_POINT ( 'NONE', #84 ) ;
#66 = SHAPE_DEFINITION_REPRESENTATION ( #162, #48 ) ;
#67 = CARTESIAN_POINT ( 'NONE',  ( 6.349999999999999645, 7.776507174585692163E-16, 1.500000000000000000 ) ) ;
#68 = CC_DESIGN_PERSON_AND_ORGANIZATION_ASSIGNMENT ( #76, #140, ( #111 ) ) ;
#69 = DIRECTION ( 'NONE',  ( -1.000000000000000000, 0.0000000000000000000, 0.0000000000000000000 ) ) ;
#70 = DIRECTION ( 'NONE',  ( 0.0000000000000000000, 0.0000000000000000000, 1.000000000000000000 ) ) ;
#71 = LOCAL_TIME ( 14, 42, 41.00000000000000000, #137 ) ;
#72 =( NAMED_UNIT ( * ) SI_UNIT ( $, .STERADIAN. ) SOLID_ANGLE_UNIT ( ) );
#73 = CC_DESIGN_PERSON_AND_ORGANIZATION_ASSIGNMENT ( #105, #39, ( #38 ) ) ;
#74 = APPROVAL_DATE_TIME ( #7, #90 ) ;
#75 = APPROVAL_STATUS ( 'not_yet_approved' ) ;
#76 = PERSON_AND_ORGANIZATION ( #164, #83 ) ;
#77 = APPROVAL_DATE_TIME ( #63, #92 ) ;
#78 = CC_DESIGN_DATE_AND_TIME_ASSIGNMENT ( #22, #128, ( #38 ) ) ;
#79 = CYLINDRICAL_SURFACE ( 'NONE', #52, 6.349999999999999645 ) ;
#80 = ORIENTED_EDGE ( 'NONE', *, *, #173, .T. ) ;
#81 = CARTESIAN_POINT ( 'NONE',  ( 0.0000000000000000000, 0.0000000000000000000, 1.500000000000000000 ) ) ;
#82 = DIRECTION ( 'NONE',  ( 0.0000000000000000000, 0.0000000000000000000, 1.000000000000000000 ) ) ;
#83 = ORGANIZATION ( 'UNSPECIFIED', 'UNSPECIFIED', '' ) ;
#84 = CARTESIAN_POINT ( 'NONE',  ( -6.349999999999999645, 0.0000000000000000000, -1.500000000000000000 ) ) ;
#85 = CIRCLE ( 'NONE', #139, 6.349999999999999645 ) ;
#86 = PERSON_AND_ORGANIZATION_ROLE ( 'design_supplier' ) ;
#87 = APPROVAL_STATUS ( 'not_yet_approved' ) ;
#88 = COORDINATED_UNIVERSAL_TIME_OFFSET ( 5, 0, .BEHIND. ) ;
#89 = ORIENTED_EDGE ( 'NONE', *, *, #136, .T. ) ;
#90 = APPROVAL ( #75, 'UNSPECIFIED' ) ;
#91 = ORIENTED_EDGE ( 'NONE', *, *, #125, .T. ) ;
#92 = APPROVAL ( #87, 'UNSPECIFIED' ) ;
#93 = CIRCLE ( 'NONE', #62, 6.349999999999999645 ) ;
#94 = AXIS2_PLACEMENT_3D ( 'NONE', #16, #113, #40 ) ;
#95 = PLANE ( 'NONE',  #34 ) ;
#96 = DATE_AND_TIME ( #147, #44 ) ;
#97 = CARTESIAN_POINT ( 'NONE',  ( 6.349999999999999645, 7.776507174585692163E-16, 1.500000000000000000 ) ) ;
#98 = LOCAL_TIME ( 14, 42, 41.00000000000000000, #141 ) ;
#99 = DIRECTION ( 'NONE',  ( 0.0000000000000000000, 0.0000000000000000000, 1.000000000000000000 ) ) ;
#100 = PERSON_AND_ORGANIZATION ( #164, #83 ) ;
#101 = PRODUCT_DEFINITION ( 'UNKNOWN', '', #111, #153 ) ;
#102 = VERTEX_POINT ( 'NONE', #97 ) ;
#103 = CC_DESIGN_APPROVAL ( #92, ( #111 ) ) ;
#104 = PRODUCT_RELATED_PRODUCT_CATEGORY ( 'detail', '', ( #150 ) ) ;
#105 = PERSON_AND_ORGANIZATION ( #164, #83 ) ;
#106 = DIRECTION ( 'NONE',  ( -0.0000000000000000000, -0.0000000000000000000, -1.000000000000000000 ) ) ;
#107 = APPROVAL_PERSON_ORGANIZATION ( #30, #90, #160 ) ;
#108 = DIRECTION ( 'NONE',  ( -0.0000000000000000000, -0.0000000000000000000, -1.000000000000000000 ) ) ;
#109 = DIRECTION ( 'NONE',  ( 1.000000000000000000, 0.0000000000000000000, 0.0000000000000000000 ) ) ;
#110 = CALENDAR_DATE ( 2020, 31, 7 ) ;
#111 = PRODUCT_DEFINITION_FORMATION_WITH_SPECIFIED_SOURCE ( 'ANY', '', #150, .NOT_KNOWN. ) ;
#112 = DIRECTION ( 'NONE',  ( 1.000000000000000000, 0.0000000000000000000, 0.0000000000000000000 ) ) ;
#113 = DIRECTION ( 'NONE',  ( 0.0000000000000000000, 0.0000000000000000000, 1.000000000000000000 ) ) ;
#114 = UNCERTAINTY_MEASURE_WITH_UNIT (LENGTH_MEASURE( 1.000000000000000082E-05 ), #37, 'distance_accuracy_value', 'NONE');
#115 = APPROVAL_PERSON_ORGANIZATION ( #100, #149, #9 ) ;
#116 = SECURITY_CLASSIFICATION_LEVEL ( 'unclassified' ) ;
#117 = AXIS2_PLACEMENT_3D ( 'NONE', #35, #99, #53 ) ;
#118 =( GEOMETRIC_REPRESENTATION_CONTEXT ( 3 ) GLOBAL_UNCERTAINTY_ASSIGNED_CONTEXT ( ( #114 ) ) GLOBAL_UNIT_ASSIGNED_CONTEXT ( ( #37, #8, #72 ) ) REPRESENTATION_CONTEXT ( 'NONE', 'WORKASPACE' ) );
#119 = APPROVAL_DATE_TIME ( #96, #149 ) ;
#120 = ORIENTED_EDGE ( 'NONE', *, *, #10, .T. ) ;
#121 = PLANE ( 'NONE',  #117 ) ;
#122 = CC_DESIGN_APPROVAL ( #90, ( #38 ) ) ;
#123 = DIRECTION ( 'NONE',  ( -1.000000000000000000, 0.0000000000000000000, 0.0000000000000000000 ) ) ;
#124 = CARTESIAN_POINT ( 'NONE',  ( 0.0000000000000000000, 0.0000000000000000000, 1.500000000000000000 ) ) ;
#125 = EDGE_CURVE ( 'NONE', #49, #65, #85, .T. ) ;
#126 = EDGE_LOOP ( 'NONE', ( #156, #61, #89, #80 ) ) ;
#127 = CARTESIAN_POINT ( 'NONE',  ( 0.0000000000000000000, 0.0000000000000000000, -1.500000000000000000 ) ) ;
#128 = DATE_TIME_ROLE ( 'classification_date' ) ;
#129 = EDGE_CURVE ( 'NONE', #102, #49, #145, .T. ) ;
#130 = ORIENTED_EDGE ( 'NONE', *, *, #129, .T. ) ;
#131 = APPROVAL_PERSON_ORGANIZATION ( #161, #92, #43 ) ;
#132 = CARTESIAN_POINT ( 'NONE',  ( 0.0000000000000000000, 0.0000000000000000000, -1.500000000000000000 ) ) ;
#133 = CC_DESIGN_DATE_AND_TIME_ASSIGNMENT ( #167, #21, ( #101 ) ) ;
#134 = ADVANCED_FACE ( 'NONE', ( #171 ), #23, .T. ) ;
#135 = DIRECTION ( 'NONE',  ( 0.0000000000000000000, 0.0000000000000000000, 1.000000000000000000 ) ) ;
#136 = EDGE_CURVE ( 'NONE', #19, #65, #142, .T. ) ;
#137 = COORDINATED_UNIVERSAL_TIME_OFFSET ( 5, 0, .BEHIND. ) ;
#138 = ORIENTED_EDGE ( 'NONE', *, *, #173, .F. ) ;
#139 = AXIS2_PLACEMENT_3D ( 'NONE', #31, #135, #6 ) ;
#140 = PERSON_AND_ORGANIZATION_ROLE ( 'creator' ) ;
#141 = COORDINATED_UNIVERSAL_TIME_OFFSET ( 5, 0, .BEHIND. ) ;
#142 = LINE ( 'NONE', #36, #64 ) ;
#143 = CARTESIAN_POINT ( 'NONE',  ( 6.349999999999999645, 7.776507174585692163E-16, -1.500000000000000000 ) ) ;
#144 = MANIFOLD_SOLID_BREP ( 'Boss-Extrude1', #5 ) ;
#145 = LINE ( 'NONE', #67, #165 ) ;
#146 = LOCAL_TIME ( 14, 42, 41.00000000000000000, #27 ) ;
#147 = CALENDAR_DATE ( 2020, 31, 7 ) ;
#148 = EDGE_CURVE ( 'NONE', #19, #102, #14, .T. ) ;
#149 = APPROVAL ( #57, 'UNSPECIFIED' ) ;
#150 = PRODUCT ( 'Web Model 15423_15439', 'Web Model 15423_15439', '', ( #172 ) ) ;
#151 = CALENDAR_DATE ( 2020, 31, 7 ) ;
#152 = CARTESIAN_POINT ( 'NONE',  ( 0.0000000000000000000, 0.0000000000000000000, 1.500000000000000000 ) ) ;
#153 = DESIGN_CONTEXT ( 'detailed design', #25, 'design' ) ;
#154 = ADVANCED_FACE ( 'NONE', ( #41 ), #121, .T. ) ;
#155 = AXIS2_PLACEMENT_3D ( 'NONE', #124, #82, #169 ) ;
#156 = ORIENTED_EDGE ( 'NONE', *, *, #129, .F. ) ;
#157 = CC_DESIGN_APPROVAL ( #149, ( #101 ) ) ;
#158 = APPLICATION_PROTOCOL_DEFINITION ( 'international standard', 'config_control_design', 1994, #54 ) ;
#159 = PERSON_AND_ORGANIZATION_ROLE ( 'design_owner' ) ;
#160 = APPROVAL_ROLE ( '' ) ;
#161 = PERSON_AND_ORGANIZATION ( #164, #83 ) ;
#162 = PRODUCT_DEFINITION_SHAPE ( 'NONE', 'NONE',  #101 ) ;
#163 = CALENDAR_DATE ( 2020, 31, 7 ) ;
#164 = PERSON ( 'UNSPECIFIED', 'UNSPECIFIED', 'UNSPECIFIED', ('UNSPECIFIED'), ('UNSPECIFIED'), ('UNSPECIFIED') ) ;
#165 = VECTOR ( 'NONE', #15, 1000.000000000000000 ) ;
#166 = EDGE_LOOP ( 'NONE', ( #138, #4 ) ) ;
#167 = DATE_AND_TIME ( #110, #146 ) ;
#168 = PERSON_AND_ORGANIZATION ( #164, #83 ) ;
#169 = DIRECTION ( 'NONE',  ( 1.000000000000000000, 0.0000000000000000000, 0.0000000000000000000 ) ) ;
#170 = DIRECTION ( 'NONE',  ( 0.0000000000000000000, 0.0000000000000000000, 1.000000000000000000 ) ) ;
#171 = FACE_OUTER_BOUND ( 'NONE', #126, .T. ) ;
#172 = MECHANICAL_CONTEXT ( 'NONE', #54, 'mechanical' ) ;
#173 = EDGE_CURVE ( 'NONE', #65, #49, #93, .T. ) ;
#174 = CARTESIAN_POINT ( 'NONE',  ( -6.349999999999999645, 0.0000000000000000000, 1.500000000000000000 ) ) ;
#175 = CC_DESIGN_PERSON_AND_ORGANIZATION_ASSIGNMENT ( #168, #86, ( #111 ) ) ;
ENDSEC;
END-ISO-10303-21;
