ISO-10303-21;
HEADER;
FILE_DESCRIPTION (( 'STEP AP203' ),
    '1' );
FILE_NAME ('34599_36939.step',
    '2017-08-24T13:19:29',
    ( '' ),
    ( '' ),
    'SwSTEP 2.0',
    'SolidWorks 2016',
    '' );
FILE_SCHEMA (( 'CONFIG_CONTROL_DESIGN' ));
ENDSEC;

DATA;
#1 = ORGANIZATION ( 'UNSPECIFIED', 'UNSPECIFIED', '' ) ;
#2 = ADVANCED_FACE ( 'NONE', ( #76 ), #119, .T. ) ;
#3 = ORIENTED_EDGE ( 'NONE', *, *, #158, .T. ) ;
#4 = EDGE_CURVE ( 'NONE', #66, #44, #148, .T. ) ;
#5 = PRODUCT_RELATED_PRODUCT_CATEGORY ( 'detail', '', ( #133 ) ) ;
#6 = DIRECTION ( 'NONE',  ( 1.000000000000000000, 0.0000000000000000000, 0.0000000000000000000 ) ) ;
#7 = PERSON_AND_ORGANIZATION ( #37, #1 ) ;
#8 = APPROVAL ( #17, 'UNSPECIFIED' ) ;
#9 = SHAPE_DEFINITION_REPRESENTATION ( #41, #14 ) ;
#10 = CARTESIAN_POINT ( 'NONE',  ( 25.00000000000000000, 3.061616997868383000E-015, 1.000000000000000000 ) ) ;
#11 = VERTEX_POINT ( 'NONE', #51 ) ;
#12 = CC_DESIGN_DATE_AND_TIME_ASSIGNMENT ( #172, #71, ( #98 ) ) ;
#13 =( NAMED_UNIT ( * ) PLANE_ANGLE_UNIT ( ) SI_UNIT ( $, .RADIAN. ) );
#14 = ADVANCED_BREP_SHAPE_REPRESENTATION ( '34599_36939', ( #126, #50 ), #174 ) ;
#15 = CARTESIAN_POINT ( 'NONE',  ( 0.0000000000000000000, 0.0000000000000000000, 0.0000000000000000000 ) ) ;
#16 = APPLICATION_PROTOCOL_DEFINITION ( 'international standard', 'config_control_design', 1994, #94 ) ;
#17 = APPROVAL_STATUS ( 'not_yet_approved' ) ;
#18 = DATE_AND_TIME ( #168, #24 ) ;
#19 = EDGE_LOOP ( 'NONE', ( #57, #118 ) ) ;
#20 = APPROVAL_PERSON_ORGANIZATION ( #33, #8, #72 ) ;
#21 = VECTOR ( 'NONE', #149, 1000.000000000000000 ) ;
#22 = CC_DESIGN_PERSON_AND_ORGANIZATION_ASSIGNMENT ( #7, #153, ( #25 ) ) ;
#23 = ADVANCED_FACE ( 'NONE', ( #173 ), #161, .T. ) ;
#24 = LOCAL_TIME ( 9, 19, 29.00000000000000000, #34 ) ;
#25 = PRODUCT_DEFINITION_FORMATION_WITH_SPECIFIED_SOURCE ( 'ANY', '', #133, .NOT_KNOWN. ) ;
#26 = CIRCLE ( 'NONE', #93, 25.00000000000000000 ) ;
#27 = PERSON_AND_ORGANIZATION_ROLE ( 'creator' ) ;
#28 = PERSON_AND_ORGANIZATION_ROLE ( 'creator' ) ;
#29 = APPROVAL ( #170, 'UNSPECIFIED' ) ;
#30 = COORDINATED_UNIVERSAL_TIME_OFFSET ( 5, 0, .BEHIND. ) ;
#31 = EDGE_LOOP ( 'NONE', ( #3, #144 ) ) ;
#32 = APPROVAL ( #151, 'UNSPECIFIED' ) ;
#33 = PERSON_AND_ORGANIZATION ( #37, #1 ) ;
#34 = COORDINATED_UNIVERSAL_TIME_OFFSET ( 5, 0, .BEHIND. ) ;
#35 = AXIS2_PLACEMENT_3D ( 'NONE', #91, #164, #103 ) ;
#36 = DIRECTION ( 'NONE',  ( -1.000000000000000000, 0.0000000000000000000, 0.0000000000000000000 ) ) ;
#37 = PERSON ( 'UNSPECIFIED', 'UNSPECIFIED', 'UNSPECIFIED', ('UNSPECIFIED'), ('UNSPECIFIED'), ('UNSPECIFIED') ) ;
#38 = APPROVAL_PERSON_ORGANIZATION ( #154, #29, #58 ) ;
#39 = CC_DESIGN_APPROVAL ( #32, ( #25 ) ) ;
#40 = APPROVAL_ROLE ( '' ) ;
#41 = PRODUCT_DEFINITION_SHAPE ( 'NONE', 'NONE',  #98 ) ;
#42 = DIRECTION ( 'NONE',  ( 1.000000000000000000, 0.0000000000000000000, 0.0000000000000000000 ) ) ;
#43 = CARTESIAN_POINT ( 'NONE',  ( 0.0000000000000000000, 0.0000000000000000000, 0.0000000000000000000 ) ) ;
#44 = VERTEX_POINT ( 'NONE', #100 ) ;
#45 = VECTOR ( 'NONE', #114, 1000.000000000000000 ) ;
#46 = COORDINATED_UNIVERSAL_TIME_OFFSET ( 5, 0, .BEHIND. ) ;
#47 = ORIENTED_EDGE ( 'NONE', *, *, #137, .F. ) ;
#48 = SECURITY_CLASSIFICATION ( '', '', #81 ) ;
#49 = DIRECTION ( 'NONE',  ( -0.0000000000000000000, -0.0000000000000000000, -1.000000000000000000 ) ) ;
#50 = AXIS2_PLACEMENT_3D ( 'NONE', #134, #68, #152 ) ;
#51 = CARTESIAN_POINT ( 'NONE',  ( 25.00000000000000000, 3.061616997868383000E-015, 0.0000000000000000000 ) ) ;
#52 = VERTEX_POINT ( 'NONE', #150 ) ;
#53 =( LENGTH_UNIT ( ) NAMED_UNIT ( * ) SI_UNIT ( .MILLI., .METRE. ) );
#54 = PERSON_AND_ORGANIZATION_ROLE ( 'design_owner' ) ;
#55 = EDGE_CURVE ( 'NONE', #52, #11, #26, .T. ) ;
#56 = LOCAL_TIME ( 9, 19, 29.00000000000000000, #30 ) ;
#57 = ORIENTED_EDGE ( 'NONE', *, *, #55, .F. ) ;
#58 = APPROVAL_ROLE ( '' ) ;
#59 = COORDINATED_UNIVERSAL_TIME_OFFSET ( 5, 0, .BEHIND. ) ;
#60 = ORIENTED_EDGE ( 'NONE', *, *, #55, .T. ) ;
#61 = LOCAL_TIME ( 9, 19, 29.00000000000000000, #59 ) ;
#62 = CIRCLE ( 'NONE', #109, 25.00000000000000000 ) ;
#63 = CARTESIAN_POINT ( 'NONE',  ( -25.00000000000000000, 0.0000000000000000000, 1.000000000000000000 ) ) ;
#64 = DIRECTION ( 'NONE',  ( -0.0000000000000000000, -0.0000000000000000000, -1.000000000000000000 ) ) ;
#65 = CARTESIAN_POINT ( 'NONE',  ( 25.00000000000000000, 3.061616997868383000E-015, 1.000000000000000000 ) ) ;
#66 = VERTEX_POINT ( 'NONE', #65 ) ;
#67 = DIRECTION ( 'NONE',  ( 1.000000000000000000, 0.0000000000000000000, -0.0000000000000000000 ) ) ;
#68 = DIRECTION ( 'NONE',  ( 0.0000000000000000000, 0.0000000000000000000, 1.000000000000000000 ) ) ;
#69 = CC_DESIGN_PERSON_AND_ORGANIZATION_ASSIGNMENT ( #160, #122, ( #48 ) ) ;
#70 =( NAMED_UNIT ( * ) SI_UNIT ( $, .STERADIAN. ) SOLID_ANGLE_UNIT ( ) );
#71 = DATE_TIME_ROLE ( 'creation_date' ) ;
#72 = APPROVAL_ROLE ( '' ) ;
#73 = DESIGN_CONTEXT ( 'detailed design', #96, 'design' ) ;
#74 = DATE_AND_TIME ( #83, #113 ) ;
#75 = CALENDAR_DATE ( 2017, 24, 8 ) ;
#76 = FACE_OUTER_BOUND ( 'NONE', #31, .T. ) ;
#77 = CC_DESIGN_DATE_AND_TIME_ASSIGNMENT ( #155, #106, ( #48 ) ) ;
#78 = DIRECTION ( 'NONE',  ( 0.0000000000000000000, 0.0000000000000000000, 1.000000000000000000 ) ) ;
#79 = CC_DESIGN_PERSON_AND_ORGANIZATION_ASSIGNMENT ( #86, #54, ( #133 ) ) ;
#80 = FACE_OUTER_BOUND ( 'NONE', #132, .T. ) ;
#81 = SECURITY_CLASSIFICATION_LEVEL ( 'unclassified' ) ;
#82 = DIRECTION ( 'NONE',  ( 1.000000000000000000, 0.0000000000000000000, -0.0000000000000000000 ) ) ;
#83 = CALENDAR_DATE ( 2017, 24, 8 ) ;
#84 = ORIENTED_EDGE ( 'NONE', *, *, #141, .T. ) ;
#85 = CC_DESIGN_APPROVAL ( #29, ( #48 ) ) ;
#86 = PERSON_AND_ORGANIZATION ( #37, #1 ) ;
#87 = ADVANCED_FACE ( 'NONE', ( #80 ), #102, .T. ) ;
#88 = APPROVAL_DATE_TIME ( #18, #8 ) ;
#89 = DIRECTION ( 'NONE',  ( 0.0000000000000000000, 0.0000000000000000000, 1.000000000000000000 ) ) ;
#90 = PLANE ( 'NONE',  #171 ) ;
#91 = CARTESIAN_POINT ( 'NONE',  ( 0.0000000000000000000, 0.0000000000000000000, 1.000000000000000000 ) ) ;
#92 = CALENDAR_DATE ( 2017, 24, 8 ) ;
#93 = AXIS2_PLACEMENT_3D ( 'NONE', #130, #146, #6 ) ;
#94 = APPLICATION_CONTEXT ( 'configuration controlled 3d designs of mechanical parts and assemblies' ) ;
#95 = PERSON_AND_ORGANIZATION ( #37, #1 ) ;
#96 = APPLICATION_CONTEXT ( 'configuration controlled 3d designs of mechanical parts and assemblies' ) ;
#97 = ORIENTED_EDGE ( 'NONE', *, *, #158, .F. ) ;
#98 = PRODUCT_DEFINITION ( 'UNKNOWN', '', #25, #73 ) ;
#99 = AXIS2_PLACEMENT_3D ( 'NONE', #112, #89, #67 ) ;
#100 = CARTESIAN_POINT ( 'NONE',  ( -25.00000000000000000, 0.0000000000000000000, 1.000000000000000000 ) ) ;
#101 = CARTESIAN_POINT ( 'NONE',  ( 0.0000000000000000000, 0.0000000000000000000, 1.000000000000000000 ) ) ;
#102 = CYLINDRICAL_SURFACE ( 'NONE', #157, 25.00000000000000000 ) ;
#103 = DIRECTION ( 'NONE',  ( 1.000000000000000000, 0.0000000000000000000, 0.0000000000000000000 ) ) ;
#104 = CC_DESIGN_APPROVAL ( #8, ( #98 ) ) ;
#105 = CARTESIAN_POINT ( 'NONE',  ( 0.0000000000000000000, 0.0000000000000000000, 1.000000000000000000 ) ) ;
#106 = DATE_TIME_ROLE ( 'classification_date' ) ;
#107 = APPROVAL_PERSON_ORGANIZATION ( #142, #32, #40 ) ;
#108 = PERSON_AND_ORGANIZATION ( #37, #1 ) ;
#109 = AXIS2_PLACEMENT_3D ( 'NONE', #105, #78, #42 ) ;
#110 = ORIENTED_EDGE ( 'NONE', *, *, #137, .T. ) ;
#111 = LINE ( 'NONE', #63, #45 ) ;
#112 = CARTESIAN_POINT ( 'NONE',  ( 0.0000000000000000000, 0.0000000000000000000, 1.000000000000000000 ) ) ;
#113 = LOCAL_TIME ( 9, 19, 29.00000000000000000, #46 ) ;
#114 = DIRECTION ( 'NONE',  ( -0.0000000000000000000, -0.0000000000000000000, -1.000000000000000000 ) ) ;
#115 = AXIS2_PLACEMENT_3D ( 'NONE', #129, #49, #165 ) ;
#116 = APPROVAL_DATE_TIME ( #131, #29 ) ;
#117 = CIRCLE ( 'NONE', #145, 25.00000000000000000 ) ;
#118 = ORIENTED_EDGE ( 'NONE', *, *, #163, .F. ) ;
#119 = PLANE ( 'NONE',  #99 ) ;
#120 = ORIENTED_EDGE ( 'NONE', *, *, #141, .F. ) ;
#121 = DIRECTION ( 'NONE',  ( 1.000000000000000000, 0.0000000000000000000, 0.0000000000000000000 ) ) ;
#122 = PERSON_AND_ORGANIZATION_ROLE ( 'classification_officer' ) ;
#123 = CALENDAR_DATE ( 2017, 24, 8 ) ;
#124 = ORIENTED_EDGE ( 'NONE', *, *, #4, .F. ) ;
#125 = COORDINATED_UNIVERSAL_TIME_OFFSET ( 5, 0, .BEHIND. ) ;
#126 = MANIFOLD_SOLID_BREP ( 'Boss-Extrude1', #140 ) ;
#127 = EDGE_LOOP ( 'NONE', ( #47, #97, #84, #60 ) ) ;
#128 = UNCERTAINTY_MEASURE_WITH_UNIT (LENGTH_MEASURE( 1.000000000000000100E-005 ), #53, 'distance_accuracy_value', 'NONE');
#129 = CARTESIAN_POINT ( 'NONE',  ( 0.0000000000000000000, 0.0000000000000000000, 1.000000000000000000 ) ) ;
#130 = CARTESIAN_POINT ( 'NONE',  ( 0.0000000000000000000, 0.0000000000000000000, 0.0000000000000000000 ) ) ;
#131 = DATE_AND_TIME ( #75, #139 ) ;
#132 = EDGE_LOOP ( 'NONE', ( #124, #110, #156, #120 ) ) ;
#133 = PRODUCT ( '34599_36939', '34599_36939', '', ( #138 ) ) ;
#134 = CARTESIAN_POINT ( 'NONE',  ( 0.0000000000000000000, 0.0000000000000000000, 0.0000000000000000000 ) ) ;
#135 = FACE_OUTER_BOUND ( 'NONE', #19, .T. ) ;
#136 = DIRECTION ( 'NONE',  ( 0.0000000000000000000, 0.0000000000000000000, 1.000000000000000000 ) ) ;
#137 = EDGE_CURVE ( 'NONE', #66, #11, #143, .T. ) ;
#138 = MECHANICAL_CONTEXT ( 'NONE', #94, 'mechanical' ) ;
#139 = LOCAL_TIME ( 9, 19, 29.00000000000000000, #125 ) ;
#140 = CLOSED_SHELL ( 'NONE', ( #87, #23, #2, #175 ) ) ;
#141 = EDGE_CURVE ( 'NONE', #44, #52, #111, .T. ) ;
#142 = PERSON_AND_ORGANIZATION ( #37, #1 ) ;
#143 = LINE ( 'NONE', #10, #21 ) ;
#144 = ORIENTED_EDGE ( 'NONE', *, *, #4, .T. ) ;
#145 = AXIS2_PLACEMENT_3D ( 'NONE', #15, #136, #121 ) ;
#146 = DIRECTION ( 'NONE',  ( 0.0000000000000000000, 0.0000000000000000000, 1.000000000000000000 ) ) ;
#147 = APPROVAL_DATE_TIME ( #74, #32 ) ;
#148 = CIRCLE ( 'NONE', #35, 25.00000000000000000 ) ;
#149 = DIRECTION ( 'NONE',  ( -0.0000000000000000000, -0.0000000000000000000, -1.000000000000000000 ) ) ;
#150 = CARTESIAN_POINT ( 'NONE',  ( -25.00000000000000000, 0.0000000000000000000, 0.0000000000000000000 ) ) ;
#151 = APPROVAL_STATUS ( 'not_yet_approved' ) ;
#152 = DIRECTION ( 'NONE',  ( 1.000000000000000000, 0.0000000000000000000, 0.0000000000000000000 ) ) ;
#153 = PERSON_AND_ORGANIZATION_ROLE ( 'design_supplier' ) ;
#154 = PERSON_AND_ORGANIZATION ( #37, #1 ) ;
#155 = DATE_AND_TIME ( #92, #61 ) ;
#156 = ORIENTED_EDGE ( 'NONE', *, *, #163, .T. ) ;
#157 = AXIS2_PLACEMENT_3D ( 'NONE', #101, #64, #36 ) ;
#158 = EDGE_CURVE ( 'NONE', #44, #66, #62, .T. ) ;
#159 = CC_DESIGN_PERSON_AND_ORGANIZATION_ASSIGNMENT ( #95, #28, ( #25 ) ) ;
#160 = PERSON_AND_ORGANIZATION ( #37, #1 ) ;
#161 = CYLINDRICAL_SURFACE ( 'NONE', #115, 25.00000000000000000 ) ;
#162 = CC_DESIGN_PERSON_AND_ORGANIZATION_ASSIGNMENT ( #108, #27, ( #98 ) ) ;
#163 = EDGE_CURVE ( 'NONE', #11, #52, #117, .T. ) ;
#164 = DIRECTION ( 'NONE',  ( 0.0000000000000000000, 0.0000000000000000000, 1.000000000000000000 ) ) ;
#165 = DIRECTION ( 'NONE',  ( -1.000000000000000000, 0.0000000000000000000, 0.0000000000000000000 ) ) ;
#166 = DIRECTION ( 'NONE',  ( 0.0000000000000000000, 0.0000000000000000000, 1.000000000000000000 ) ) ;
#167 = APPLICATION_PROTOCOL_DEFINITION ( 'international standard', 'config_control_design', 1994, #96 ) ;
#168 = CALENDAR_DATE ( 2017, 24, 8 ) ;
#169 = CC_DESIGN_SECURITY_CLASSIFICATION ( #48, ( #25 ) ) ;
#170 = APPROVAL_STATUS ( 'not_yet_approved' ) ;
#171 = AXIS2_PLACEMENT_3D ( 'NONE', #43, #166, #82 ) ;
#172 = DATE_AND_TIME ( #123, #56 ) ;
#173 = FACE_OUTER_BOUND ( 'NONE', #127, .T. ) ;
#174 =( GEOMETRIC_REPRESENTATION_CONTEXT ( 3 ) GLOBAL_UNCERTAINTY_ASSIGNED_CONTEXT ( ( #128 ) ) GLOBAL_UNIT_ASSIGNED_CONTEXT ( ( #53, #13, #70 ) ) REPRESENTATION_CONTEXT ( 'NONE', 'WORKASPACE' ) );
#175 = ADVANCED_FACE ( 'NONE', ( #135 ), #90, .F. ) ;
ENDSEC;
END-ISO-10303-21;
