ISO-10303-21;
HEADER;
FILE_DESCRIPTION (( 'STEP AP203' ),
    '1' );
FILE_NAME ('Web Model 18298.step',
    '2021-06-28T20:41:31',
    ( '' ),
    ( '' ),
    'SwSTEP 2.0',
    'SolidWorks 2018',
    '' );
FILE_SCHEMA (( 'CONFIG_CONTROL_DESIGN' ));
ENDSEC;

DATA;
#1 = CC_DESIGN_PERSON_AND_ORGANIZATION_ASSIGNMENT ( #108, #156, ( #143 ) ) ;
#2 = APPROVAL ( #79, 'UNSPECIFIED' ) ;
#3 = LOCAL_TIME ( 16, 41, 31.00000000000000000, #16 ) ;
#4 = VERTEX_POINT ( 'NONE', #12 ) ;
#5 = EDGE_CURVE ( 'NONE', #47, #51, #144, .T. ) ;
#6 = CARTESIAN_POINT ( 'NONE',  ( 0.000000000000000000, 0.000000000000000000, 0.000000000000000000 ) ) ;
#7 = COORDINATED_UNIVERSAL_TIME_OFFSET ( 5, 0, .BEHIND. ) ;
#8 = CIRCLE ( 'NONE', #36, 0.2460629921259842590 ) ;
#9 = DIRECTION ( 'NONE',  ( 1.000000000000000000, 0.000000000000000000, 0.000000000000000000 ) ) ;
#10 = DIRECTION ( 'NONE',  ( 0.000000000000000000, 0.000000000000000000, 1.000000000000000000 ) ) ;
#11 = CC_DESIGN_DATE_AND_TIME_ASSIGNMENT ( #121, #141, ( #143 ) ) ;
#12 = CARTESIAN_POINT ( 'NONE',  ( 0.2460629921259842590, 3.013402556957069934E-17, 0.01574803149606299191 ) ) ;
#13 = PERSON ( 'UNSPECIFIED', 'UNSPECIFIED', 'UNSPECIFIED', ('UNSPECIFIED'), ('UNSPECIFIED'), ('UNSPECIFIED') ) ;
#14 = DIRECTION ( 'NONE',  ( 1.000000000000000000, 0.000000000000000000, 0.000000000000000000 ) ) ;
#15 = ADVANCED_FACE ( 'NONE', ( #56 ), #25, .T. ) ;
#16 = COORDINATED_UNIVERSAL_TIME_OFFSET ( 5, 0, .BEHIND. ) ;
#17 = LOCAL_TIME ( 16, 41, 31.00000000000000000, #130 ) ;
#18 = EDGE_CURVE ( 'NONE', #4, #169, #8, .T. ) ;
#19 = LOCAL_TIME ( 16, 41, 31.00000000000000000, #7 ) ;
#20 = SECURITY_CLASSIFICATION ( '', '', #178 ) ;
#21 = ORIENTED_EDGE ( 'NONE', *, *, #147, .T. ) ;
#22 = APPROVAL_PERSON_ORGANIZATION ( #170, #88, #128 ) ;
#23 = ORIENTED_EDGE ( 'NONE', *, *, #57, .F. ) ;
#24 = ORIENTED_EDGE ( 'NONE', *, *, #57, .T. ) ;
#25 = PLANE ( 'NONE',  #107 ) ;
#26 = CARTESIAN_POINT ( 'NONE',  ( 0.2460629921259842590, 3.013402556957069934E-17, 0.000000000000000000 ) ) ;
#27 = DIRECTION ( 'NONE',  ( -0.000000000000000000, -0.000000000000000000, -1.000000000000000000 ) ) ;
#28 = CARTESIAN_POINT ( 'NONE',  ( 0.000000000000000000, 0.000000000000000000, 0.000000000000000000 ) ) ;
#29 = ADVANCED_FACE ( 'NONE', ( #75 ), #105, .F. ) ;
#30 = APPROVAL_STATUS ( 'not_yet_approved' ) ;
#31 = PERSON_AND_ORGANIZATION_ROLE ( 'classification_officer' ) ;
#32 = CC_DESIGN_SECURITY_CLASSIFICATION ( #20, ( #149 ) ) ;
#33 = LOCAL_TIME ( 16, 41, 31.00000000000000000, #133 ) ;
#34 = APPLICATION_CONTEXT ( 'configuration controlled 3d designs of mechanical parts and assemblies' ) ;
#35 = ADVANCED_BREP_SHAPE_REPRESENTATION ( 'Web Model 18298', ( #38, #84 ), #66 ) ;
#36 = AXIS2_PLACEMENT_3D ( 'NONE', #65, #135, #153 ) ;
#37 = FACE_OUTER_BOUND ( 'NONE', #99, .T. ) ;
#38 = MANIFOLD_SOLID_BREP ( 'Boss-Extrude1', #87 ) ;
#39 = CALENDAR_DATE ( 2021, 28, 6 ) ;
#40 = DIRECTION ( 'NONE',  ( 0.000000000000000000, 0.000000000000000000, 1.000000000000000000 ) ) ;
#41 = CYLINDRICAL_SURFACE ( 'NONE', #131, 0.2460629921259842590 ) ;
#42 = AXIS2_PLACEMENT_3D ( 'NONE', #95, #10, #164 ) ;
#43 = APPROVAL_ROLE ( '' ) ;
#44 = MECHANICAL_CONTEXT ( 'NONE', #34, 'mechanical' ) ;
#45 = DATE_TIME_ROLE ( 'classification_date' ) ;
#46 = CIRCLE ( 'NONE', #119, 0.2460629921259842590 ) ;
#47 = VERTEX_POINT ( 'NONE', #26 ) ;
#48 = DATE_AND_TIME ( #39, #58 ) ;
#49 = EDGE_CURVE ( 'NONE', #169, #4, #82, .T. ) ;
#50 = ORIENTED_EDGE ( 'NONE', *, *, #163, .T. ) ;
#51 = VERTEX_POINT ( 'NONE', #150 ) ;
#52 = PERSON_AND_ORGANIZATION_ROLE ( 'design_owner' ) ;
#53 = CC_DESIGN_PERSON_AND_ORGANIZATION_ASSIGNMENT ( #134, #31, ( #20 ) ) ;
#54 = PERSON_AND_ORGANIZATION ( #13, #103 ) ;
#55 = AXIS2_PLACEMENT_3D ( 'NONE', #109, #124, #106 ) ;
#56 = FACE_OUTER_BOUND ( 'NONE', #86, .T. ) ;
#57 = EDGE_CURVE ( 'NONE', #51, #47, #46, .T. ) ;
#58 = LOCAL_TIME ( 16, 41, 31.00000000000000000, #67 ) ;
#59 = CC_DESIGN_APPROVAL ( #2, ( #149 ) ) ;
#60 = UNCERTAINTY_MEASURE_WITH_UNIT (LENGTH_MEASURE( 1.000000000000000082E-05 ), #90, 'distance_accuracy_value', 'NONE');
#61 = PRODUCT_RELATED_PRODUCT_CATEGORY ( 'detail', '', ( #138 ) ) ;
#62 = ORIENTED_EDGE ( 'NONE', *, *, #18, .F. ) ;
#63 = DIRECTION ( 'NONE',  ( 1.000000000000000000, 0.000000000000000000, 0.000000000000000000 ) ) ;
#64 = ORIENTED_EDGE ( 'NONE', *, *, #5, .F. ) ;
#65 = CARTESIAN_POINT ( 'NONE',  ( 0.000000000000000000, 0.000000000000000000, 0.01574803149606299191 ) ) ;
#66 =( GEOMETRIC_REPRESENTATION_CONTEXT ( 3 ) GLOBAL_UNCERTAINTY_ASSIGNED_CONTEXT ( ( #60 ) ) GLOBAL_UNIT_ASSIGNED_CONTEXT ( ( #90, #176, #97 ) ) REPRESENTATION_CONTEXT ( 'NONE', 'WORKASPACE' ) );
#67 = COORDINATED_UNIVERSAL_TIME_OFFSET ( 5, 0, .BEHIND. ) ;
#68 = DATE_AND_TIME ( #151, #19 ) ;
#69 = APPROVAL_DATE_TIME ( #68, #159 ) ;
#70 = APPROVAL_DATE_TIME ( #122, #88 ) ;
#71 = ORIENTED_EDGE ( 'NONE', *, *, #147, .F. ) ;
#72 = AXIS2_PLACEMENT_3D ( 'NONE', #118, #40, #9 ) ;
#73 = DIRECTION ( 'NONE',  ( -1.000000000000000000, 0.000000000000000000, 0.000000000000000000 ) ) ;
#74 = APPROVAL_DATE_TIME ( #81, #2 ) ;
#75 = FACE_OUTER_BOUND ( 'NONE', #83, .T. ) ;
#76 = DIRECTION ( 'NONE',  ( -0.000000000000000000, -0.000000000000000000, -1.000000000000000000 ) ) ;
#77 = PERSON_AND_ORGANIZATION_ROLE ( 'creator' ) ;
#78 = ADVANCED_FACE ( 'NONE', ( #145 ), #89, .T. ) ;
#79 = APPROVAL_STATUS ( 'not_yet_approved' ) ;
#80 = DIMENSIONAL_EXPONENTS ( 1.000000000000000000, 0.000000000000000000, 0.000000000000000000, 0.000000000000000000, 0.000000000000000000, 0.000000000000000000, 0.000000000000000000 ) ;
#81 = DATE_AND_TIME ( #129, #3 ) ;
#82 = CIRCLE ( 'NONE', #72, 0.2460629921259842590 ) ;
#83 = EDGE_LOOP ( 'NONE', ( #23, #64 ) ) ;
#84 = AXIS2_PLACEMENT_3D ( 'NONE', #175, #155, #14 ) ;
#85 = APPROVAL_PERSON_ORGANIZATION ( #98, #159, #43 ) ;
#86 = EDGE_LOOP ( 'NONE', ( #136, #100 ) ) ;
#87 = CLOSED_SHELL ( 'NONE', ( #78, #167, #15, #29 ) ) ;
#88 = APPROVAL ( #30, 'UNSPECIFIED' ) ;
#89 = CYLINDRICAL_SURFACE ( 'NONE', #55, 0.2460629921259842590 ) ;
#90 =( CONVERSION_BASED_UNIT ( 'INCH', #165 ) LENGTH_UNIT ( ) NAMED_UNIT ( #80 ) );
#91 = PERSON_AND_ORGANIZATION ( #13, #103 ) ;
#92 = SHAPE_DEFINITION_REPRESENTATION ( #101, #35 ) ;
#93 = DIRECTION ( 'NONE',  ( -0.000000000000000000, -0.000000000000000000, -1.000000000000000000 ) ) ;
#94 = DESIGN_CONTEXT ( 'detailed design', #127, 'design' ) ;
#95 = CARTESIAN_POINT ( 'NONE',  ( 0.000000000000000000, 0.000000000000000000, 0.000000000000000000 ) ) ;
#96 = CC_DESIGN_PERSON_AND_ORGANIZATION_ASSIGNMENT ( #171, #168, ( #149 ) ) ;
#97 =( NAMED_UNIT ( * ) SI_UNIT ( $, .STERADIAN. ) SOLID_ANGLE_UNIT ( ) );
#98 = PERSON_AND_ORGANIZATION ( #13, #103 ) ;
#99 = EDGE_LOOP ( 'NONE', ( #114, #162, #21, #24 ) ) ;
#100 = ORIENTED_EDGE ( 'NONE', *, *, #18, .T. ) ;
#101 = PRODUCT_DEFINITION_SHAPE ( 'NONE', 'NONE',  #143 ) ;
#102 = AXIS2_PLACEMENT_3D ( 'NONE', #6, #104, #63 ) ;
#103 = ORGANIZATION ( 'UNSPECIFIED', 'UNSPECIFIED', '' ) ;
#104 = DIRECTION ( 'NONE',  ( 0.000000000000000000, 0.000000000000000000, 1.000000000000000000 ) ) ;
#105 = PLANE ( 'NONE',  #42 ) ;
#106 = DIRECTION ( 'NONE',  ( -1.000000000000000000, 0.000000000000000000, 0.000000000000000000 ) ) ;
#107 = AXIS2_PLACEMENT_3D ( 'NONE', #166, #139, #174 ) ;
#108 = PERSON_AND_ORGANIZATION ( #13, #103 ) ;
#109 = CARTESIAN_POINT ( 'NONE',  ( 0.000000000000000000, 0.000000000000000000, 0.01574803149606299191 ) ) ;
#110 = APPLICATION_PROTOCOL_DEFINITION ( 'international standard', 'config_control_design', 1994, #127 ) ;
#111 = APPROVAL_ROLE ( '' ) ;
#112 = APPROVAL_PERSON_ORGANIZATION ( #91, #2, #111 ) ;
#113 = EDGE_LOOP ( 'NONE', ( #62, #50, #146, #71 ) ) ;
#114 = ORIENTED_EDGE ( 'NONE', *, *, #163, .F. ) ;
#115 = CC_DESIGN_APPROVAL ( #88, ( #143 ) ) ;
#116 = LINE ( 'NONE', #172, #177 ) ;
#117 = CC_DESIGN_APPROVAL ( #159, ( #20 ) ) ;
#118 = CARTESIAN_POINT ( 'NONE',  ( 0.000000000000000000, 0.000000000000000000, 0.01574803149606299191 ) ) ;
#119 = AXIS2_PLACEMENT_3D ( 'NONE', #28, #120, #173 ) ;
#120 = DIRECTION ( 'NONE',  ( 0.000000000000000000, 0.000000000000000000, 1.000000000000000000 ) ) ;
#121 = DATE_AND_TIME ( #158, #33 ) ;
#122 = DATE_AND_TIME ( #161, #17 ) ;
#123 = CARTESIAN_POINT ( 'NONE',  ( -0.2460629921259842590, 0.000000000000000000, 0.01574803149606299191 ) ) ;
#124 = DIRECTION ( 'NONE',  ( -0.000000000000000000, -0.000000000000000000, -1.000000000000000000 ) ) ;
#125 = CC_DESIGN_DATE_AND_TIME_ASSIGNMENT ( #48, #45, ( #20 ) ) ;
#126 = APPROVAL_STATUS ( 'not_yet_approved' ) ;
#127 = APPLICATION_CONTEXT ( 'configuration controlled 3d designs of mechanical parts and assemblies' ) ;
#128 = APPROVAL_ROLE ( '' ) ;
#129 = CALENDAR_DATE ( 2021, 28, 6 ) ;
#130 = COORDINATED_UNIVERSAL_TIME_OFFSET ( 5, 0, .BEHIND. ) ;
#131 = AXIS2_PLACEMENT_3D ( 'NONE', #154, #76, #73 ) ;
#132 = CC_DESIGN_PERSON_AND_ORGANIZATION_ASSIGNMENT ( #160, #77, ( #149 ) ) ;
#133 = COORDINATED_UNIVERSAL_TIME_OFFSET ( 5, 0, .BEHIND. ) ;
#134 = PERSON_AND_ORGANIZATION ( #13, #103 ) ;
#135 = DIRECTION ( 'NONE',  ( 0.000000000000000000, 0.000000000000000000, 1.000000000000000000 ) ) ;
#136 = ORIENTED_EDGE ( 'NONE', *, *, #49, .T. ) ;
#137 = CARTESIAN_POINT ( 'NONE',  ( -0.2460629921259842590, 0.000000000000000000, 0.01574803149606299191 ) ) ;
#138 = PRODUCT ( 'Web Model 18298', 'Web Model 18298', '', ( #44 ) ) ;
#139 = DIRECTION ( 'NONE',  ( 0.000000000000000000, 0.000000000000000000, 1.000000000000000000 ) ) ;
#140 = LINE ( 'NONE', #123, #152 ) ;
#141 = DATE_TIME_ROLE ( 'creation_date' ) ;
#142 = CC_DESIGN_PERSON_AND_ORGANIZATION_ASSIGNMENT ( #54, #52, ( #138 ) ) ;
#143 = PRODUCT_DEFINITION ( 'UNKNOWN', '', #149, #94 ) ;
#144 = CIRCLE ( 'NONE', #102, 0.2460629921259842590 ) ;
#145 = FACE_OUTER_BOUND ( 'NONE', #113, .T. ) ;
#146 = ORIENTED_EDGE ( 'NONE', *, *, #5, .T. ) ;
#147 = EDGE_CURVE ( 'NONE', #169, #51, #140, .T. ) ;
#148 =( LENGTH_UNIT ( ) NAMED_UNIT ( * ) SI_UNIT ( $, .METRE. ) );
#149 = PRODUCT_DEFINITION_FORMATION_WITH_SPECIFIED_SOURCE ( 'ANY', '', #138, .NOT_KNOWN. ) ;
#150 = CARTESIAN_POINT ( 'NONE',  ( -0.2460629921259842590, 0.000000000000000000, 0.000000000000000000 ) ) ;
#151 = CALENDAR_DATE ( 2021, 28, 6 ) ;
#152 = VECTOR ( 'NONE', #27, 39.37007874015748143 ) ;
#153 = DIRECTION ( 'NONE',  ( 1.000000000000000000, 0.000000000000000000, 0.000000000000000000 ) ) ;
#154 = CARTESIAN_POINT ( 'NONE',  ( 0.000000000000000000, 0.000000000000000000, 0.01574803149606299191 ) ) ;
#155 = DIRECTION ( 'NONE',  ( 0.000000000000000000, 0.000000000000000000, 1.000000000000000000 ) ) ;
#156 = PERSON_AND_ORGANIZATION_ROLE ( 'creator' ) ;
#157 = APPLICATION_PROTOCOL_DEFINITION ( 'international standard', 'config_control_design', 1994, #34 ) ;
#158 = CALENDAR_DATE ( 2021, 28, 6 ) ;
#159 = APPROVAL ( #126, 'UNSPECIFIED' ) ;
#160 = PERSON_AND_ORGANIZATION ( #13, #103 ) ;
#161 = CALENDAR_DATE ( 2021, 28, 6 ) ;
#162 = ORIENTED_EDGE ( 'NONE', *, *, #49, .F. ) ;
#163 = EDGE_CURVE ( 'NONE', #4, #47, #116, .T. ) ;
#164 = DIRECTION ( 'NONE',  ( 1.000000000000000000, 0.000000000000000000, -0.000000000000000000 ) ) ;
#165 = LENGTH_MEASURE_WITH_UNIT ( LENGTH_MEASURE( 0.02539999999999999897 ), #148 );
#166 = CARTESIAN_POINT ( 'NONE',  ( 0.000000000000000000, 0.000000000000000000, 0.01574803149606299191 ) ) ;
#167 = ADVANCED_FACE ( 'NONE', ( #37 ), #41, .T. ) ;
#168 = PERSON_AND_ORGANIZATION_ROLE ( 'design_supplier' ) ;
#169 = VERTEX_POINT ( 'NONE', #137 ) ;
#170 = PERSON_AND_ORGANIZATION ( #13, #103 ) ;
#171 = PERSON_AND_ORGANIZATION ( #13, #103 ) ;
#172 = CARTESIAN_POINT ( 'NONE',  ( 0.2460629921259842590, 3.013402556957069934E-17, 0.01574803149606299191 ) ) ;
#173 = DIRECTION ( 'NONE',  ( 1.000000000000000000, 0.000000000000000000, 0.000000000000000000 ) ) ;
#174 = DIRECTION ( 'NONE',  ( 1.000000000000000000, 0.000000000000000000, -0.000000000000000000 ) ) ;
#175 = CARTESIAN_POINT ( 'NONE',  ( 0.000000000000000000, 0.000000000000000000, 0.000000000000000000 ) ) ;
#176 =( NAMED_UNIT ( * ) PLANE_ANGLE_UNIT ( ) SI_UNIT ( $, .RADIAN. ) );
#177 = VECTOR ( 'NONE', #93, 39.37007874015748143 ) ;
#178 = SECURITY_CLASSIFICATION_LEVEL ( 'unclassified' ) ;
ENDSEC;
END-ISO-10303-21;
