ISO-10303-21;
HEADER;
FILE_DESCRIPTION (( 'STEP AP203' ),
    '1' );
FILE_NAME ('45568_Default.step',
    '2017-04-12T17:37:23',
    ( '' ),
    ( '' ),
    'SwSTEP 2.0',
    'SolidWorks 2016',
    '' );
FILE_SCHEMA (( 'CONFIG_CONTROL_DESIGN' ));
ENDSEC;

DATA;
#1 = CARTESIAN_POINT ( 'NONE',  ( 19.05000000000000100, 2.332952152375708000E-015, 0.5000000000000000000 ) ) ;
#2 = DIRECTION ( 'NONE',  ( 0.0000000000000000000, 0.0000000000000000000, 1.000000000000000000 ) ) ;
#3 = ORGANIZATION ( 'UNSPECIFIED', 'UNSPECIFIED', '' ) ;
#4 = PERSON_AND_ORGANIZATION ( #105, #3 ) ;
#5 = ORIENTED_EDGE ( 'NONE', *, *, #160, .T. ) ;
#6 = FACE_OUTER_BOUND ( 'NONE', #149, .T. ) ;
#7 = CIRCLE ( 'NONE', #8, 19.05000000000000100 ) ;
#8 = AXIS2_PLACEMENT_3D ( 'NONE', #137, #38, #127 ) ;
#9 = PRODUCT ( '45568_Default', '45568_Default', '', ( #88 ) ) ;
#10 = CALENDAR_DATE ( 2017, 12, 4 ) ;
#11 = LOCAL_TIME ( 13, 37, 23.00000000000000000, #136 ) ;
#12 = DIRECTION ( 'NONE',  ( -1.000000000000000000, 0.0000000000000000000, 0.0000000000000000000 ) ) ;
#13 = PRODUCT_DEFINITION ( 'UNKNOWN', '', #50, #70 ) ;
#14 = VERTEX_POINT ( 'NONE', #49 ) ;
#15 = DATE_AND_TIME ( #46, #11 ) ;
#16 =( NAMED_UNIT ( * ) SI_UNIT ( $, .STERADIAN. ) SOLID_ANGLE_UNIT ( ) );
#17 = CARTESIAN_POINT ( 'NONE',  ( -19.05000000000000100, 0.0000000000000000000, -0.5000000000000000000 ) ) ;
#18 = ORIENTED_EDGE ( 'NONE', *, *, #160, .F. ) ;
#19 = DIRECTION ( 'NONE',  ( 0.0000000000000000000, 0.0000000000000000000, 1.000000000000000000 ) ) ;
#20 = APPROVAL ( #86, 'UNSPECIFIED' ) ;
#21 = CALENDAR_DATE ( 2017, 12, 4 ) ;
#22 = DIRECTION ( 'NONE',  ( -1.000000000000000000, 0.0000000000000000000, 0.0000000000000000000 ) ) ;
#23 = FACE_OUTER_BOUND ( 'NONE', #112, .T. ) ;
#24 = CC_DESIGN_APPROVAL ( #20, ( #13 ) ) ;
#25 = DATE_TIME_ROLE ( 'classification_date' ) ;
#26 = DIRECTION ( 'NONE',  ( -0.0000000000000000000, -0.0000000000000000000, -1.000000000000000000 ) ) ;
#27 = APPLICATION_PROTOCOL_DEFINITION ( 'international standard', 'config_control_design', 1994, #63 ) ;
#28 = ADVANCED_FACE ( 'NONE', ( #33 ), #104, .T. ) ;
#29 = CC_DESIGN_PERSON_AND_ORGANIZATION_ASSIGNMENT ( #4, #39, ( #103 ) ) ;
#30 = CLOSED_SHELL ( 'NONE', ( #159, #28, #100, #87 ) ) ;
#31 = DATE_AND_TIME ( #68, #106 ) ;
#32 = CC_DESIGN_PERSON_AND_ORGANIZATION_ASSIGNMENT ( #92, #94, ( #13 ) ) ;
#33 = FACE_OUTER_BOUND ( 'NONE', #41, .T. ) ;
#34 = PERSON_AND_ORGANIZATION ( #105, #3 ) ;
#35 = LOCAL_TIME ( 13, 37, 23.00000000000000000, #48 ) ;
#36 = CC_DESIGN_DATE_AND_TIME_ASSIGNMENT ( #31, #25, ( #103 ) ) ;
#37 = DIRECTION ( 'NONE',  ( 1.000000000000000000, 0.0000000000000000000, 0.0000000000000000000 ) ) ;
#38 = DIRECTION ( 'NONE',  ( 0.0000000000000000000, 0.0000000000000000000, 1.000000000000000000 ) ) ;
#39 = PERSON_AND_ORGANIZATION_ROLE ( 'classification_officer' ) ;
#40 = ORIENTED_EDGE ( 'NONE', *, *, #69, .T. ) ;
#41 = EDGE_LOOP ( 'NONE', ( #83, #117, #121, #45 ) ) ;
#42 = DIRECTION ( 'NONE',  ( 0.0000000000000000000, 0.0000000000000000000, 1.000000000000000000 ) ) ;
#43 = LOCAL_TIME ( 13, 37, 23.00000000000000000, #78 ) ;
#44 = CC_DESIGN_DATE_AND_TIME_ASSIGNMENT ( #15, #129, ( #13 ) ) ;
#45 = ORIENTED_EDGE ( 'NONE', *, *, #148, .T. ) ;
#46 = CALENDAR_DATE ( 2017, 12, 4 ) ;
#47 = APPROVAL ( #139, 'UNSPECIFIED' ) ;
#48 = COORDINATED_UNIVERSAL_TIME_OFFSET ( 5, 0, .BEHIND. ) ;
#49 = CARTESIAN_POINT ( 'NONE',  ( 19.05000000000000100, 2.332952152375708000E-015, -0.5000000000000000000 ) ) ;
#50 = PRODUCT_DEFINITION_FORMATION_WITH_SPECIFIED_SOURCE ( 'ANY', '', #9, .NOT_KNOWN. ) ;
#51 = CARTESIAN_POINT ( 'NONE',  ( 0.0000000000000000000, 0.0000000000000000000, 0.0000000000000000000 ) ) ;
#52 = AXIS2_PLACEMENT_3D ( 'NONE', #142, #42, #131 ) ;
#53 = PERSON_AND_ORGANIZATION_ROLE ( 'design_supplier' ) ;
#54 = LOCAL_TIME ( 13, 37, 23.00000000000000000, #93 ) ;
#55 = CC_DESIGN_APPROVAL ( #47, ( #103 ) ) ;
#56 = LINE ( 'NONE', #1, #95 ) ;
#57 = APPROVAL ( #167, 'UNSPECIFIED' ) ;
#58 = ORIENTED_EDGE ( 'NONE', *, *, #102, .F. ) ;
#59 = AXIS2_PLACEMENT_3D ( 'NONE', #67, #19, #97 ) ;
#60 = PERSON_AND_ORGANIZATION ( #105, #3 ) ;
#61 = CC_DESIGN_SECURITY_CLASSIFICATION ( #103, ( #50 ) ) ;
#62 = APPLICATION_CONTEXT ( 'configuration controlled 3d designs of mechanical parts and assemblies' ) ;
#63 = APPLICATION_CONTEXT ( 'configuration controlled 3d designs of mechanical parts and assemblies' ) ;
#64 = CARTESIAN_POINT ( 'NONE',  ( -19.05000000000000100, 0.0000000000000000000, 0.5000000000000000000 ) ) ;
#65 = APPROVAL_ROLE ( '' ) ;
#66 = DIRECTION ( 'NONE',  ( 1.000000000000000000, 0.0000000000000000000, -0.0000000000000000000 ) ) ;
#67 = CARTESIAN_POINT ( 'NONE',  ( 0.0000000000000000000, 0.0000000000000000000, 0.5000000000000000000 ) ) ;
#68 = CALENDAR_DATE ( 2017, 12, 4 ) ;
#69 = EDGE_CURVE ( 'NONE', #89, #173, #118, .T. ) ;
#70 = DESIGN_CONTEXT ( 'detailed design', #63, 'design' ) ;
#71 = CC_DESIGN_APPROVAL ( #57, ( #50 ) ) ;
#72 = ORIENTED_EDGE ( 'NONE', *, *, #148, .F. ) ;
#73 = PERSON_AND_ORGANIZATION ( #105, #3 ) ;
#74 = PRODUCT_RELATED_PRODUCT_CATEGORY ( 'detail', '', ( #9 ) ) ;
#75 = ORIENTED_EDGE ( 'NONE', *, *, #80, .T. ) ;
#76 = PERSON_AND_ORGANIZATION ( #105, #3 ) ;
#77 = CYLINDRICAL_SURFACE ( 'NONE', #134, 19.05000000000000100 ) ;
#78 = COORDINATED_UNIVERSAL_TIME_OFFSET ( 5, 0, .BEHIND. ) ;
#79 = PLANE ( 'NONE',  #162 ) ;
#80 = EDGE_CURVE ( 'NONE', #173, #89, #114, .T. ) ;
#81 = CC_DESIGN_PERSON_AND_ORGANIZATION_ASSIGNMENT ( #73, #110, ( #50 ) ) ;
#82 =( LENGTH_UNIT ( ) NAMED_UNIT ( * ) SI_UNIT ( .MILLI., .METRE. ) );
#83 = ORIENTED_EDGE ( 'NONE', *, *, #107, .F. ) ;
#84 =( GEOMETRIC_REPRESENTATION_CONTEXT ( 3 ) GLOBAL_UNCERTAINTY_ASSIGNED_CONTEXT ( ( #123 ) ) GLOBAL_UNIT_ASSIGNED_CONTEXT ( ( #82, #108, #16 ) ) REPRESENTATION_CONTEXT ( 'NONE', 'WORKASPACE' ) );
#85 = DIRECTION ( 'NONE',  ( 1.000000000000000000, 0.0000000000000000000, 0.0000000000000000000 ) ) ;
#86 = APPROVAL_STATUS ( 'not_yet_approved' ) ;
#87 = ADVANCED_FACE ( 'NONE', ( #6 ), #79, .F. ) ;
#88 = MECHANICAL_CONTEXT ( 'NONE', #62, 'mechanical' ) ;
#89 = VERTEX_POINT ( 'NONE', #113 ) ;
#90 = MANIFOLD_SOLID_BREP ( 'Boss-Extrude1', #30 ) ;
#91 = CC_DESIGN_PERSON_AND_ORGANIZATION_ASSIGNMENT ( #34, #53, ( #50 ) ) ;
#92 = PERSON_AND_ORGANIZATION ( #105, #3 ) ;
#93 = COORDINATED_UNIVERSAL_TIME_OFFSET ( 5, 0, .BEHIND. ) ;
#94 = PERSON_AND_ORGANIZATION_ROLE ( 'creator' ) ;
#95 = VECTOR ( 'NONE', #26, 1000.000000000000000 ) ;
#96 = APPLICATION_PROTOCOL_DEFINITION ( 'international standard', 'config_control_design', 1994, #62 ) ;
#97 = DIRECTION ( 'NONE',  ( 1.000000000000000000, 0.0000000000000000000, -0.0000000000000000000 ) ) ;
#98 = CARTESIAN_POINT ( 'NONE',  ( 0.0000000000000000000, 0.0000000000000000000, 0.5000000000000000000 ) ) ;
#99 = DIRECTION ( 'NONE',  ( -0.0000000000000000000, -0.0000000000000000000, -1.000000000000000000 ) ) ;
#100 = ADVANCED_FACE ( 'NONE', ( #144 ), #130, .T. ) ;
#101 = DIRECTION ( 'NONE',  ( 1.000000000000000000, 0.0000000000000000000, 0.0000000000000000000 ) ) ;
#102 = EDGE_CURVE ( 'NONE', #89, #128, #143, .T. ) ;
#103 = SECURITY_CLASSIFICATION ( '', '', #154 ) ;
#104 = CYLINDRICAL_SURFACE ( 'NONE', #170, 19.05000000000000100 ) ;
#105 = PERSON ( 'UNSPECIFIED', 'UNSPECIFIED', 'UNSPECIFIED', ('UNSPECIFIED'), ('UNSPECIFIED'), ('UNSPECIFIED') ) ;
#106 = LOCAL_TIME ( 13, 37, 23.00000000000000000, #146 ) ;
#107 = EDGE_CURVE ( 'NONE', #173, #14, #56, .T. ) ;
#108 =( NAMED_UNIT ( * ) PLANE_ANGLE_UNIT ( ) SI_UNIT ( $, .RADIAN. ) );
#109 = DIRECTION ( 'NONE',  ( -0.0000000000000000000, -0.0000000000000000000, -1.000000000000000000 ) ) ;
#110 = PERSON_AND_ORGANIZATION_ROLE ( 'creator' ) ;
#111 = AXIS2_PLACEMENT_3D ( 'NONE', #98, #2, #85 ) ;
#112 = EDGE_LOOP ( 'NONE', ( #161, #155, #5, #58 ) ) ;
#113 = CARTESIAN_POINT ( 'NONE',  ( -19.05000000000000100, 0.0000000000000000000, 0.5000000000000000000 ) ) ;
#114 = CIRCLE ( 'NONE', #111, 19.05000000000000100 ) ;
#115 = APPROVAL_ROLE ( '' ) ;
#116 = APPROVAL_DATE_TIME ( #151, #57 ) ;
#117 = ORIENTED_EDGE ( 'NONE', *, *, #69, .F. ) ;
#118 = CIRCLE ( 'NONE', #52, 19.05000000000000100 ) ;
#119 = APPROVAL_PERSON_ORGANIZATION ( #158, #57, #65 ) ;
#120 = CARTESIAN_POINT ( 'NONE',  ( 0.0000000000000000000, 0.0000000000000000000, 0.5000000000000000000 ) ) ;
#121 = ORIENTED_EDGE ( 'NONE', *, *, #102, .T. ) ;
#122 = CARTESIAN_POINT ( 'NONE',  ( 0.0000000000000000000, 0.0000000000000000000, -0.5000000000000000000 ) ) ;
#123 = UNCERTAINTY_MEASURE_WITH_UNIT (LENGTH_MEASURE( 1.000000000000000100E-005 ), #82, 'distance_accuracy_value', 'NONE');
#124 = DIRECTION ( 'NONE',  ( 0.0000000000000000000, 0.0000000000000000000, 1.000000000000000000 ) ) ;
#125 = DIRECTION ( 'NONE',  ( 0.0000000000000000000, 0.0000000000000000000, 1.000000000000000000 ) ) ;
#126 = APPROVAL_PERSON_ORGANIZATION ( #60, #20, #115 ) ;
#127 = DIRECTION ( 'NONE',  ( 1.000000000000000000, 0.0000000000000000000, 0.0000000000000000000 ) ) ;
#128 = VERTEX_POINT ( 'NONE', #17 ) ;
#129 = DATE_TIME_ROLE ( 'creation_date' ) ;
#130 = PLANE ( 'NONE',  #59 ) ;
#131 = DIRECTION ( 'NONE',  ( 1.000000000000000000, 0.0000000000000000000, 0.0000000000000000000 ) ) ;
#132 = APPROVAL_DATE_TIME ( #165, #47 ) ;
#133 = EDGE_LOOP ( 'NONE', ( #40, #75 ) ) ;
#134 = AXIS2_PLACEMENT_3D ( 'NONE', #120, #109, #12 ) ;
#135 = APPROVAL_PERSON_ORGANIZATION ( #174, #47, #169 ) ;
#136 = COORDINATED_UNIVERSAL_TIME_OFFSET ( 5, 0, .BEHIND. ) ;
#137 = CARTESIAN_POINT ( 'NONE',  ( 0.0000000000000000000, 0.0000000000000000000, -0.5000000000000000000 ) ) ;
#138 = DIRECTION ( 'NONE',  ( -0.0000000000000000000, -0.0000000000000000000, -1.000000000000000000 ) ) ;
#139 = APPROVAL_STATUS ( 'not_yet_approved' ) ;
#140 = CARTESIAN_POINT ( 'NONE',  ( 0.0000000000000000000, 0.0000000000000000000, 0.5000000000000000000 ) ) ;
#141 = AXIS2_PLACEMENT_3D ( 'NONE', #122, #125, #37 ) ;
#142 = CARTESIAN_POINT ( 'NONE',  ( 0.0000000000000000000, 0.0000000000000000000, 0.5000000000000000000 ) ) ;
#143 = LINE ( 'NONE', #64, #150 ) ;
#144 = FACE_OUTER_BOUND ( 'NONE', #133, .T. ) ;
#145 = SHAPE_DEFINITION_REPRESENTATION ( #172, #156 ) ;
#146 = COORDINATED_UNIVERSAL_TIME_OFFSET ( 5, 0, .BEHIND. ) ;
#147 = CALENDAR_DATE ( 2017, 12, 4 ) ;
#148 = EDGE_CURVE ( 'NONE', #128, #14, #166, .T. ) ;
#149 = EDGE_LOOP ( 'NONE', ( #72, #18 ) ) ;
#150 = VECTOR ( 'NONE', #138, 1000.000000000000000 ) ;
#151 = DATE_AND_TIME ( #10, #43 ) ;
#152 = PERSON_AND_ORGANIZATION_ROLE ( 'design_owner' ) ;
#153 = CARTESIAN_POINT ( 'NONE',  ( 19.05000000000000100, 2.332952152375708000E-015, 0.5000000000000000000 ) ) ;
#154 = SECURITY_CLASSIFICATION_LEVEL ( 'unclassified' ) ;
#155 = ORIENTED_EDGE ( 'NONE', *, *, #107, .T. ) ;
#156 = ADVANCED_BREP_SHAPE_REPRESENTATION ( '45568_Default', ( #90, #171 ), #84 ) ;
#157 = CARTESIAN_POINT ( 'NONE',  ( 0.0000000000000000000, 0.0000000000000000000, -0.5000000000000000000 ) ) ;
#158 = PERSON_AND_ORGANIZATION ( #105, #3 ) ;
#159 = ADVANCED_FACE ( 'NONE', ( #23 ), #77, .T. ) ;
#160 = EDGE_CURVE ( 'NONE', #14, #128, #7, .T. ) ;
#161 = ORIENTED_EDGE ( 'NONE', *, *, #80, .F. ) ;
#162 = AXIS2_PLACEMENT_3D ( 'NONE', #157, #168, #66 ) ;
#163 = DATE_AND_TIME ( #147, #35 ) ;
#164 = APPROVAL_DATE_TIME ( #163, #20 ) ;
#165 = DATE_AND_TIME ( #21, #54 ) ;
#166 = CIRCLE ( 'NONE', #141, 19.05000000000000100 ) ;
#167 = APPROVAL_STATUS ( 'not_yet_approved' ) ;
#168 = DIRECTION ( 'NONE',  ( 0.0000000000000000000, 0.0000000000000000000, 1.000000000000000000 ) ) ;
#169 = APPROVAL_ROLE ( '' ) ;
#170 = AXIS2_PLACEMENT_3D ( 'NONE', #140, #99, #22 ) ;
#171 = AXIS2_PLACEMENT_3D ( 'NONE', #51, #124, #101 ) ;
#172 = PRODUCT_DEFINITION_SHAPE ( 'NONE', 'NONE',  #13 ) ;
#173 = VERTEX_POINT ( 'NONE', #153 ) ;
#174 = PERSON_AND_ORGANIZATION ( #105, #3 ) ;
#175 = CC_DESIGN_PERSON_AND_ORGANIZATION_ASSIGNMENT ( #76, #152, ( #9 ) ) ;
ENDSEC;
END-ISO-10303-21;
