ISO-10303-21;
HEADER;
FILE_DESCRIPTION (( 'STEP AP203' ),
    '1' );
FILE_NAME ('Web Model 68418.STEP',
    '2017-01-31T20:00:51',
    ( '' ),
    ( '' ),
    'SwSTEP 2.0',
    'SolidWorks 2016',
    '' );
FILE_SCHEMA (( 'CONFIG_CONTROL_DESIGN' ));
ENDSEC;

DATA;
#1 = PRODUCT_DEFINITION_FORMATION_WITH_SPECIFIED_SOURCE ( 'ANY', '', #153, .NOT_KNOWN. ) ;
#2 = CALENDAR_DATE ( 2017, 31, 1 ) ;
#3 = CARTESIAN_POINT ( 'NONE',  ( 6.249999999999998200, 7.654042494670955600E-016, 3.000000000000000000 ) ) ;
#4 = DIRECTION ( 'NONE',  ( 0.0000000000000000000, 0.0000000000000000000, 1.000000000000000000 ) ) ;
#5 = APPROVAL_PERSON_ORGANIZATION ( #104, #141, #156 ) ;
#6 = ADVANCED_FACE ( 'NONE', ( #79 ), #100, .T. ) ;
#7 = AXIS2_PLACEMENT_3D ( 'NONE', #84, #129, #50 ) ;
#8 = PERSON_AND_ORGANIZATION_ROLE ( 'design_owner' ) ;
#9 = PERSON ( 'UNSPECIFIED', 'UNSPECIFIED', 'UNSPECIFIED', ('UNSPECIFIED'), ('UNSPECIFIED'), ('UNSPECIFIED') ) ;
#10 = MECHANICAL_CONTEXT ( 'NONE', #80, 'mechanical' ) ;
#11 = PERSON_AND_ORGANIZATION_ROLE ( 'creator' ) ;
#12 = CC_DESIGN_PERSON_AND_ORGANIZATION_ASSIGNMENT ( #142, #22, ( #150 ) ) ;
#13 = CARTESIAN_POINT ( 'NONE',  ( 0.0000000000000000000, 0.0000000000000000000, 0.0000000000000000000 ) ) ;
#14 = LOCAL_TIME ( 15, 0, 51.00000000000000000, #94 ) ;
#15 = APPROVAL_DATE_TIME ( #130, #141 ) ;
#16 = VECTOR ( 'NONE', #30, 1000.000000000000000 ) ;
#17 =( NAMED_UNIT ( * ) PLANE_ANGLE_UNIT ( ) SI_UNIT ( $, .RADIAN. ) );
#18 = EDGE_CURVE ( 'NONE', #138, #52, #49, .T. ) ;
#19 = EDGE_LOOP ( 'NONE', ( #121, #53, #57, #115 ) ) ;
#20 = APPROVAL ( #48, 'UNSPECIFIED' ) ;
#21 = DATE_TIME_ROLE ( 'creation_date' ) ;
#22 = PERSON_AND_ORGANIZATION_ROLE ( 'classification_officer' ) ;
#23 = ORIENTED_EDGE ( 'NONE', *, *, #152, .T. ) ;
#24 = DIRECTION ( 'NONE',  ( 1.000000000000000000, 0.0000000000000000000, 0.0000000000000000000 ) ) ;
#25 = ORIENTED_EDGE ( 'NONE', *, *, #173, .F. ) ;
#26 = CC_DESIGN_APPROVAL ( #20, ( #150 ) ) ;
#27 = PLANE ( 'NONE',  #122 ) ;
#28 = PERSON_AND_ORGANIZATION ( #9, #167 ) ;
#29 = DIRECTION ( 'NONE',  ( 1.000000000000000000, 0.0000000000000000000, -0.0000000000000000000 ) ) ;
#30 = DIRECTION ( 'NONE',  ( -0.0000000000000000000, -0.0000000000000000000, -1.000000000000000000 ) ) ;
#31 = LINE ( 'NONE', #113, #131 ) ;
#32 = EDGE_LOOP ( 'NONE', ( #158, #23 ) ) ;
#33 = UNCERTAINTY_MEASURE_WITH_UNIT (LENGTH_MEASURE( 1.000000000000000100E-005 ), #116, 'distance_accuracy_value', 'NONE');
#34 = APPROVAL_PERSON_ORGANIZATION ( #28, #20, #140 ) ;
#35 = APPROVAL_STATUS ( 'not_yet_approved' ) ;
#36 = DIRECTION ( 'NONE',  ( 1.000000000000000000, 0.0000000000000000000, 0.0000000000000000000 ) ) ;
#37 = DIRECTION ( 'NONE',  ( -0.0000000000000000000, -0.0000000000000000000, -1.000000000000000000 ) ) ;
#38 = DATE_AND_TIME ( #144, #41 ) ;
#39 = CARTESIAN_POINT ( 'NONE',  ( 0.0000000000000000000, 0.0000000000000000000, 0.0000000000000000000 ) ) ;
#40 =( NAMED_UNIT ( * ) SI_UNIT ( $, .STERADIAN. ) SOLID_ANGLE_UNIT ( ) );
#41 = LOCAL_TIME ( 15, 0, 51.00000000000000000, #72 ) ;
#42 = APPROVAL ( #124, 'UNSPECIFIED' ) ;
#43 = APPLICATION_PROTOCOL_DEFINITION ( 'international standard', 'config_control_design', 1994, #80 ) ;
#44 = CC_DESIGN_DATE_AND_TIME_ASSIGNMENT ( #101, #125, ( #150 ) ) ;
#45 = PERSON_AND_ORGANIZATION_ROLE ( 'design_supplier' ) ;
#46 = APPROVAL_PERSON_ORGANIZATION ( #155, #42, #93 ) ;
#47 = LOCAL_TIME ( 15, 0, 51.00000000000000000, #67 ) ;
#48 = APPROVAL_STATUS ( 'not_yet_approved' ) ;
#49 = CIRCLE ( 'NONE', #163, 6.249999999999998200 ) ;
#50 = DIRECTION ( 'NONE',  ( 1.000000000000000000, 0.0000000000000000000, -0.0000000000000000000 ) ) ;
#51 = FACE_OUTER_BOUND ( 'NONE', #171, .T. ) ;
#52 = VERTEX_POINT ( 'NONE', #161 ) ;
#53 = ORIENTED_EDGE ( 'NONE', *, *, #120, .T. ) ;
#54 = LOCAL_TIME ( 15, 0, 51.00000000000000000, #157 ) ;
#55 = APPLICATION_PROTOCOL_DEFINITION ( 'international standard', 'config_control_design', 1994, #69 ) ;
#56 = CIRCLE ( 'NONE', #160, 6.249999999999998200 ) ;
#57 = ORIENTED_EDGE ( 'NONE', *, *, #173, .T. ) ;
#58 = PLANE ( 'NONE',  #7 ) ;
#59 = CARTESIAN_POINT ( 'NONE',  ( 0.0000000000000000000, 0.0000000000000000000, 3.000000000000000000 ) ) ;
#60 = ORIENTED_EDGE ( 'NONE', *, *, #18, .T. ) ;
#61 = DIRECTION ( 'NONE',  ( 1.000000000000000000, 0.0000000000000000000, 0.0000000000000000000 ) ) ;
#62 = PERSON_AND_ORGANIZATION ( #9, #167 ) ;
#63 = DIRECTION ( 'NONE',  ( -0.0000000000000000000, -0.0000000000000000000, -1.000000000000000000 ) ) ;
#64 = CARTESIAN_POINT ( 'NONE',  ( -6.249999999999998200, 0.0000000000000000000, 0.0000000000000000000 ) ) ;
#65 = DIRECTION ( 'NONE',  ( 1.000000000000000000, 0.0000000000000000000, 0.0000000000000000000 ) ) ;
#66 = ADVANCED_FACE ( 'NONE', ( #51 ), #58, .F. ) ;
#67 = COORDINATED_UNIVERSAL_TIME_OFFSET ( 5, 0, .BEHIND. ) ;
#68 = DIRECTION ( 'NONE',  ( 0.0000000000000000000, 0.0000000000000000000, 1.000000000000000000 ) ) ;
#69 = APPLICATION_CONTEXT ( 'configuration controlled 3d designs of mechanical parts and assemblies' ) ;
#70 = PERSON_AND_ORGANIZATION ( #9, #167 ) ;
#71 = CC_DESIGN_SECURITY_CLASSIFICATION ( #150, ( #1 ) ) ;
#72 = COORDINATED_UNIVERSAL_TIME_OFFSET ( 5, 0, .BEHIND. ) ;
#73 = EDGE_LOOP ( 'NONE', ( #175, #92, #119, #60 ) ) ;
#74 = AXIS2_PLACEMENT_3D ( 'NONE', #98, #172, #112 ) ;
#75 = FACE_OUTER_BOUND ( 'NONE', #73, .T. ) ;
#76 = DIRECTION ( 'NONE',  ( 0.0000000000000000000, 0.0000000000000000000, 1.000000000000000000 ) ) ;
#77 = DESIGN_CONTEXT ( 'detailed design', #69, 'design' ) ;
#78 = CARTESIAN_POINT ( 'NONE',  ( -6.249999999999998200, 0.0000000000000000000, 3.000000000000000000 ) ) ;
#79 = FACE_OUTER_BOUND ( 'NONE', #19, .T. ) ;
#80 = APPLICATION_CONTEXT ( 'configuration controlled 3d designs of mechanical parts and assemblies' ) ;
#81 = SECURITY_CLASSIFICATION_LEVEL ( 'unclassified' ) ;
#82 = FACE_OUTER_BOUND ( 'NONE', #32, .T. ) ;
#83 = EDGE_CURVE ( 'NONE', #164, #138, #31, .T. ) ;
#84 = CARTESIAN_POINT ( 'NONE',  ( 0.0000000000000000000, 0.0000000000000000000, 0.0000000000000000000 ) ) ;
#85 = CC_DESIGN_PERSON_AND_ORGANIZATION_ASSIGNMENT ( #135, #8, ( #153 ) ) ;
#86 = SHAPE_DEFINITION_REPRESENTATION ( #87, #97 ) ;
#87 = PRODUCT_DEFINITION_SHAPE ( 'NONE', 'NONE',  #114 ) ;
#88 = EDGE_CURVE ( 'NONE', #164, #128, #151, .T. ) ;
#89 = CALENDAR_DATE ( 2017, 31, 1 ) ;
#90 = CARTESIAN_POINT ( 'NONE',  ( 6.249999999999998200, 7.654042494670955600E-016, 3.000000000000000000 ) ) ;
#91 = DIRECTION ( 'NONE',  ( 0.0000000000000000000, 0.0000000000000000000, 1.000000000000000000 ) ) ;
#92 = ORIENTED_EDGE ( 'NONE', *, *, #88, .F. ) ;
#93 = APPROVAL_ROLE ( '' ) ;
#94 = COORDINATED_UNIVERSAL_TIME_OFFSET ( 5, 0, .BEHIND. ) ;
#95 = AXIS2_PLACEMENT_3D ( 'NONE', #59, #103, #65 ) ;
#96 = AXIS2_PLACEMENT_3D ( 'NONE', #102, #4, #61 ) ;
#97 = ADVANCED_BREP_SHAPE_REPRESENTATION ( 'Web Model 68418', ( #162, #145 ), #108 ) ;
#98 = CARTESIAN_POINT ( 'NONE',  ( 0.0000000000000000000, 0.0000000000000000000, 3.000000000000000000 ) ) ;
#99 = CC_DESIGN_APPROVAL ( #141, ( #1 ) ) ;
#100 = CYLINDRICAL_SURFACE ( 'NONE', #74, 6.249999999999998200 ) ;
#101 = DATE_AND_TIME ( #174, #149 ) ;
#102 = CARTESIAN_POINT ( 'NONE',  ( 0.0000000000000000000, 0.0000000000000000000, 3.000000000000000000 ) ) ;
#103 = DIRECTION ( 'NONE',  ( 0.0000000000000000000, 0.0000000000000000000, 1.000000000000000000 ) ) ;
#104 = PERSON_AND_ORGANIZATION ( #9, #167 ) ;
#105 = DIRECTION ( 'NONE',  ( -1.000000000000000000, 0.0000000000000000000, 0.0000000000000000000 ) ) ;
#106 = ADVANCED_FACE ( 'NONE', ( #82 ), #27, .T. ) ;
#107 = CC_DESIGN_APPROVAL ( #42, ( #114 ) ) ;
#108 =( GEOMETRIC_REPRESENTATION_CONTEXT ( 3 ) GLOBAL_UNCERTAINTY_ASSIGNED_CONTEXT ( ( #33 ) ) GLOBAL_UNIT_ASSIGNED_CONTEXT ( ( #116, #17, #40 ) ) REPRESENTATION_CONTEXT ( 'NONE', 'WORKASPACE' ) );
#109 = APPROVAL_DATE_TIME ( #139, #42 ) ;
#110 = CC_DESIGN_PERSON_AND_ORGANIZATION_ASSIGNMENT ( #62, #170, ( #1 ) ) ;
#111 = CIRCLE ( 'NONE', #96, 6.249999999999998200 ) ;
#112 = DIRECTION ( 'NONE',  ( -1.000000000000000000, 0.0000000000000000000, 0.0000000000000000000 ) ) ;
#113 = CARTESIAN_POINT ( 'NONE',  ( -6.249999999999998200, 0.0000000000000000000, 3.000000000000000000 ) ) ;
#114 = PRODUCT_DEFINITION ( 'UNKNOWN', '', #1, #77 ) ;
#115 = ORIENTED_EDGE ( 'NONE', *, *, #83, .F. ) ;
#116 =( LENGTH_UNIT ( ) NAMED_UNIT ( * ) SI_UNIT ( .MILLI., .METRE. ) );
#117 = COORDINATED_UNIVERSAL_TIME_OFFSET ( 5, 0, .BEHIND. ) ;
#118 = CC_DESIGN_PERSON_AND_ORGANIZATION_ASSIGNMENT ( #132, #45, ( #1 ) ) ;
#119 = ORIENTED_EDGE ( 'NONE', *, *, #83, .T. ) ;
#120 = EDGE_CURVE ( 'NONE', #128, #52, #127, .T. ) ;
#121 = ORIENTED_EDGE ( 'NONE', *, *, #152, .F. ) ;
#122 = AXIS2_PLACEMENT_3D ( 'NONE', #147, #91, #29 ) ;
#123 = APPROVAL_DATE_TIME ( #166, #20 ) ;
#124 = APPROVAL_STATUS ( 'not_yet_approved' ) ;
#125 = DATE_TIME_ROLE ( 'classification_date' ) ;
#126 = PRODUCT_RELATED_PRODUCT_CATEGORY ( 'detail', '', ( #153 ) ) ;
#127 = LINE ( 'NONE', #3, #16 ) ;
#128 = VERTEX_POINT ( 'NONE', #90 ) ;
#129 = DIRECTION ( 'NONE',  ( 0.0000000000000000000, 0.0000000000000000000, 1.000000000000000000 ) ) ;
#130 = DATE_AND_TIME ( #2, #47 ) ;
#131 = VECTOR ( 'NONE', #37, 1000.000000000000000 ) ;
#132 = PERSON_AND_ORGANIZATION ( #9, #167 ) ;
#133 = DIRECTION ( 'NONE',  ( 1.000000000000000000, 0.0000000000000000000, 0.0000000000000000000 ) ) ;
#134 = CARTESIAN_POINT ( 'NONE',  ( 0.0000000000000000000, 0.0000000000000000000, 3.000000000000000000 ) ) ;
#135 = PERSON_AND_ORGANIZATION ( #9, #167 ) ;
#136 = ORIENTED_EDGE ( 'NONE', *, *, #18, .F. ) ;
#137 = AXIS2_PLACEMENT_3D ( 'NONE', #134, #63, #105 ) ;
#138 = VERTEX_POINT ( 'NONE', #64 ) ;
#139 = DATE_AND_TIME ( #148, #14 ) ;
#140 = APPROVAL_ROLE ( '' ) ;
#141 = APPROVAL ( #35, 'UNSPECIFIED' ) ;
#142 = PERSON_AND_ORGANIZATION ( #9, #167 ) ;
#143 = DIRECTION ( 'NONE',  ( 0.0000000000000000000, 0.0000000000000000000, 1.000000000000000000 ) ) ;
#144 = CALENDAR_DATE ( 2017, 31, 1 ) ;
#145 = AXIS2_PLACEMENT_3D ( 'NONE', #154, #68, #36 ) ;
#146 = CYLINDRICAL_SURFACE ( 'NONE', #137, 6.249999999999998200 ) ;
#147 = CARTESIAN_POINT ( 'NONE',  ( 0.0000000000000000000, 0.0000000000000000000, 3.000000000000000000 ) ) ;
#148 = CALENDAR_DATE ( 2017, 31, 1 ) ;
#149 = LOCAL_TIME ( 15, 0, 51.00000000000000000, #117 ) ;
#150 = SECURITY_CLASSIFICATION ( '', '', #81 ) ;
#151 = CIRCLE ( 'NONE', #95, 6.249999999999998200 ) ;
#152 = EDGE_CURVE ( 'NONE', #128, #164, #111, .T. ) ;
#153 = PRODUCT ( 'Web Model 68418', 'Web Model 68418', '', ( #10 ) ) ;
#154 = CARTESIAN_POINT ( 'NONE',  ( 0.0000000000000000000, 0.0000000000000000000, 0.0000000000000000000 ) ) ;
#155 = PERSON_AND_ORGANIZATION ( #9, #167 ) ;
#156 = APPROVAL_ROLE ( '' ) ;
#157 = COORDINATED_UNIVERSAL_TIME_OFFSET ( 5, 0, .BEHIND. ) ;
#158 = ORIENTED_EDGE ( 'NONE', *, *, #88, .T. ) ;
#159 = CC_DESIGN_PERSON_AND_ORGANIZATION_ASSIGNMENT ( #70, #11, ( #114 ) ) ;
#160 = AXIS2_PLACEMENT_3D ( 'NONE', #39, #76, #133 ) ;
#161 = CARTESIAN_POINT ( 'NONE',  ( 6.249999999999998200, 7.654042494670955600E-016, 0.0000000000000000000 ) ) ;
#162 = MANIFOLD_SOLID_BREP ( 'Extrude1', #169 ) ;
#163 = AXIS2_PLACEMENT_3D ( 'NONE', #13, #143, #24 ) ;
#164 = VERTEX_POINT ( 'NONE', #78 ) ;
#165 = CC_DESIGN_DATE_AND_TIME_ASSIGNMENT ( #38, #21, ( #114 ) ) ;
#166 = DATE_AND_TIME ( #89, #54 ) ;
#167 = ORGANIZATION ( 'UNSPECIFIED', 'UNSPECIFIED', '' ) ;
#168 = ADVANCED_FACE ( 'NONE', ( #75 ), #146, .T. ) ;
#169 = CLOSED_SHELL ( 'NONE', ( #6, #168, #106, #66 ) ) ;
#170 = PERSON_AND_ORGANIZATION_ROLE ( 'creator' ) ;
#171 = EDGE_LOOP ( 'NONE', ( #136, #25 ) ) ;
#172 = DIRECTION ( 'NONE',  ( -0.0000000000000000000, -0.0000000000000000000, -1.000000000000000000 ) ) ;
#173 = EDGE_CURVE ( 'NONE', #52, #138, #56, .T. ) ;
#174 = CALENDAR_DATE ( 2017, 31, 1 ) ;
#175 = ORIENTED_EDGE ( 'NONE', *, *, #120, .F. ) ;
ENDSEC;
END-ISO-10303-21;
