ISO-10303-21;
HEADER;
FILE_DESCRIPTION (( 'STEP AP203' ),
    '1' );
FILE_NAME ('Web Model 43636_21062.step',
    '2022-03-16T15:40:46',
    ( '' ),
    ( '' ),
    'SwSTEP 2.0',
    'SolidWorks 2021',
    '' );
FILE_SCHEMA (( 'CONFIG_CONTROL_DESIGN' ));
ENDSEC;

DATA;
#1 = DIRECTION ( 'NONE',  ( 1.000000000000000000, 0.000000000000000000, -0.000000000000000000 ) ) ;
#2 = COORDINATED_UNIVERSAL_TIME_OFFSET ( 5, 0, .BEHIND. ) ;
#3 = DATE_AND_TIME ( #52, #125 ) ;
#4 = CC_DESIGN_PERSON_AND_ORGANIZATION_ASSIGNMENT ( #152, #119, ( #25 ) ) ;
#5 = ORIENTED_EDGE ( 'NONE', *, *, #87, .F. ) ;
#6 = EDGE_CURVE ( 'NONE', #57, #137, #30, .T. ) ;
#7 = FACE_OUTER_BOUND ( 'NONE', #80, .T. ) ;
#8 = APPLICATION_PROTOCOL_DEFINITION ( 'international standard', 'config_control_design', 1994, #75 ) ;
#9 = CALENDAR_DATE ( 2022, 16, 3 ) ;
#10 = LOCAL_TIME ( 11, 40, 46.00000000000000000, #38 ) ;
#11 = COORDINATED_UNIVERSAL_TIME_OFFSET ( 5, 0, .BEHIND. ) ;
#12 = APPROVAL_DATE_TIME ( #134, #70 ) ;
#13 = APPROVAL_PERSON_ORGANIZATION ( #59, #44, #172 ) ;
#14 = CARTESIAN_POINT ( 'NONE',  ( 0.000000000000000000, 0.000000000000000000, 1.000000000000000000 ) ) ;
#15 = CC_DESIGN_SECURITY_CLASSIFICATION ( #25, ( #159 ) ) ;
#16 = AXIS2_PLACEMENT_3D ( 'NONE', #142, #94, #155 ) ;
#17 = UNCERTAINTY_MEASURE_WITH_UNIT (LENGTH_MEASURE( 1.000000000000000082E-05 ), #71, 'distance_accuracy_value', 'NONE');
#18 = APPROVAL_PERSON_ORGANIZATION ( #26, #78, #104 ) ;
#19 = VERTEX_POINT ( 'NONE', #139 ) ;
#20 = ORIENTED_EDGE ( 'NONE', *, *, #92, .T. ) ;
#21 = AXIS2_PLACEMENT_3D ( 'NONE', #74, #167, #1 ) ;
#22 = CARTESIAN_POINT ( 'NONE',  ( 0.000000000000000000, 0.000000000000000000, 1.000000000000000000 ) ) ;
#23 = DIRECTION ( 'NONE',  ( 1.000000000000000000, 0.000000000000000000, 0.000000000000000000 ) ) ;
#24 = PERSON_AND_ORGANIZATION_ROLE ( 'design_owner' ) ;
#25 = SECURITY_CLASSIFICATION ( '', '', #168 ) ;
#26 = PERSON_AND_ORGANIZATION ( #146, #73 ) ;
#27 = CALENDAR_DATE ( 2022, 16, 3 ) ;
#28 = EDGE_LOOP ( 'NONE', ( #95, #108, #56, #162 ) ) ;
#29 = ORIENTED_EDGE ( 'NONE', *, *, #41, .T. ) ;
#30 = LINE ( 'NONE', #31, #91 ) ;
#31 = CARTESIAN_POINT ( 'NONE',  ( 12.69999999999999929, 1.555301434917138433E-15, 1.000000000000000000 ) ) ;
#32 =( GEOMETRIC_REPRESENTATION_CONTEXT ( 3 ) GLOBAL_UNCERTAINTY_ASSIGNED_CONTEXT ( ( #17 ) ) GLOBAL_UNIT_ASSIGNED_CONTEXT ( ( #71, #143, #49 ) ) REPRESENTATION_CONTEXT ( 'NONE', 'WORKASPACE' ) );
#33 = PERSON_AND_ORGANIZATION_ROLE ( 'creator' ) ;
#34 = CARTESIAN_POINT ( 'NONE',  ( 0.000000000000000000, 0.000000000000000000, 0.000000000000000000 ) ) ;
#35 = AXIS2_PLACEMENT_3D ( 'NONE', #48, #144, #118 ) ;
#36 = DIRECTION ( 'NONE',  ( -0.000000000000000000, -0.000000000000000000, -1.000000000000000000 ) ) ;
#37 = CC_DESIGN_DATE_AND_TIME_ASSIGNMENT ( #39, #40, ( #103 ) ) ;
#38 = COORDINATED_UNIVERSAL_TIME_OFFSET ( 5, 0, .BEHIND. ) ;
#39 = DATE_AND_TIME ( #65, #174 ) ;
#40 = DATE_TIME_ROLE ( 'creation_date' ) ;
#41 = EDGE_CURVE ( 'NONE', #57, #19, #175, .T. ) ;
#42 = DIRECTION ( 'NONE',  ( 1.000000000000000000, 0.000000000000000000, 0.000000000000000000 ) ) ;
#43 = VERTEX_POINT ( 'NONE', #141 ) ;
#44 = APPROVAL ( #113, 'UNSPECIFIED' ) ;
#45 = ORIENTED_EDGE ( 'NONE', *, *, #6, .F. ) ;
#46 = FACE_OUTER_BOUND ( 'NONE', #68, .T. ) ;
#47 = COORDINATED_UNIVERSAL_TIME_OFFSET ( 5, 0, .BEHIND. ) ;
#48 = CARTESIAN_POINT ( 'NONE',  ( 0.000000000000000000, 0.000000000000000000, 0.000000000000000000 ) ) ;
#49 =( NAMED_UNIT ( * ) SI_UNIT ( $, .STERADIAN. ) SOLID_ANGLE_UNIT ( ) );
#50 = CARTESIAN_POINT ( 'NONE',  ( -12.69999999999999929, 0.000000000000000000, 1.000000000000000000 ) ) ;
#51 = DIRECTION ( 'NONE',  ( 0.000000000000000000, 0.000000000000000000, 1.000000000000000000 ) ) ;
#52 = CALENDAR_DATE ( 2022, 16, 3 ) ;
#53 = APPROVAL_DATE_TIME ( #123, #78 ) ;
#54 = AXIS2_PLACEMENT_3D ( 'NONE', #88, #51, #130 ) ;
#55 = PERSON_AND_ORGANIZATION ( #146, #73 ) ;
#56 = ORIENTED_EDGE ( 'NONE', *, *, #87, .T. ) ;
#57 = VERTEX_POINT ( 'NONE', #171 ) ;
#58 = CC_DESIGN_APPROVAL ( #78, ( #25 ) ) ;
#59 = PERSON_AND_ORGANIZATION ( #146, #73 ) ;
#60 = DIRECTION ( 'NONE',  ( -1.000000000000000000, 0.000000000000000000, 0.000000000000000000 ) ) ;
#61 = DIRECTION ( 'NONE',  ( 0.000000000000000000, 0.000000000000000000, 1.000000000000000000 ) ) ;
#62 = MECHANICAL_CONTEXT ( 'NONE', #75, 'mechanical' ) ;
#63 = COORDINATED_UNIVERSAL_TIME_OFFSET ( 5, 0, .BEHIND. ) ;
#64 = PERSON_AND_ORGANIZATION_ROLE ( 'creator' ) ;
#65 = CALENDAR_DATE ( 2022, 16, 3 ) ;
#66 = CC_DESIGN_APPROVAL ( #70, ( #159 ) ) ;
#67 = CLOSED_SHELL ( 'NONE', ( #121, #170, #69, #138 ) ) ;
#68 = EDGE_LOOP ( 'NONE', ( #20, #29 ) ) ;
#69 = ADVANCED_FACE ( 'NONE', ( #46 ), #84, .T. ) ;
#70 = APPROVAL ( #150, 'UNSPECIFIED' ) ;
#71 =( LENGTH_UNIT ( ) NAMED_UNIT ( * ) SI_UNIT ( .MILLI., .METRE. ) );
#72 = DIRECTION ( 'NONE',  ( 1.000000000000000000, 0.000000000000000000, 0.000000000000000000 ) ) ;
#73 = ORGANIZATION ( 'UNSPECIFIED', 'UNSPECIFIED', '' ) ;
#74 = CARTESIAN_POINT ( 'NONE',  ( 0.000000000000000000, 0.000000000000000000, 0.000000000000000000 ) ) ;
#75 = APPLICATION_CONTEXT ( 'configuration controlled 3d designs of mechanical parts and assemblies' ) ;
#76 = PERSON_AND_ORGANIZATION_ROLE ( 'design_supplier' ) ;
#77 = SHAPE_DEFINITION_REPRESENTATION ( #156, #105 ) ;
#78 = APPROVAL ( #124, 'UNSPECIFIED' ) ;
#79 = ORIENTED_EDGE ( 'NONE', *, *, #126, .T. ) ;
#80 = EDGE_LOOP ( 'NONE', ( #45, #158, #140, #79 ) ) ;
#81 = LOCAL_TIME ( 11, 40, 46.00000000000000000, #63 ) ;
#82 = AXIS2_PLACEMENT_3D ( 'NONE', #34, #61, #23 ) ;
#83 = APPLICATION_CONTEXT ( 'configuration controlled 3d designs of mechanical parts and assemblies' ) ;
#84 = PLANE ( 'NONE',  #16 ) ;
#85 = PRODUCT_RELATED_PRODUCT_CATEGORY ( 'detail', '', ( #107 ) ) ;
#86 = PLANE ( 'NONE',  #21 ) ;
#87 = EDGE_CURVE ( 'NONE', #137, #43, #117, .T. ) ;
#88 = CARTESIAN_POINT ( 'NONE',  ( 0.000000000000000000, 0.000000000000000000, 1.000000000000000000 ) ) ;
#89 = DIRECTION ( 'NONE',  ( -0.000000000000000000, -0.000000000000000000, -1.000000000000000000 ) ) ;
#90 = DATE_TIME_ROLE ( 'classification_date' ) ;
#91 = VECTOR ( 'NONE', #161, 1000.000000000000000 ) ;
#92 = EDGE_CURVE ( 'NONE', #19, #57, #136, .T. ) ;
#93 = APPROVAL_ROLE ( '' ) ;
#94 = DIRECTION ( 'NONE',  ( 0.000000000000000000, 0.000000000000000000, 1.000000000000000000 ) ) ;
#95 = ORIENTED_EDGE ( 'NONE', *, *, #41, .F. ) ;
#96 = CC_DESIGN_PERSON_AND_ORGANIZATION_ASSIGNMENT ( #163, #33, ( #103 ) ) ;
#97 = CALENDAR_DATE ( 2022, 16, 3 ) ;
#98 = APPROVAL_DATE_TIME ( #173, #44 ) ;
#99 = CARTESIAN_POINT ( 'NONE',  ( 0.000000000000000000, 0.000000000000000000, 0.000000000000000000 ) ) ;
#100 = DIRECTION ( 'NONE',  ( -0.000000000000000000, -0.000000000000000000, -1.000000000000000000 ) ) ;
#101 = CARTESIAN_POINT ( 'NONE',  ( 12.69999999999999929, 1.555301434917138433E-15, 0.000000000000000000 ) ) ;
#102 = AXIS2_PLACEMENT_3D ( 'NONE', #14, #106, #42 ) ;
#103 = PRODUCT_DEFINITION ( 'UNKNOWN', '', #159, #127 ) ;
#104 = APPROVAL_ROLE ( '' ) ;
#105 = ADVANCED_BREP_SHAPE_REPRESENTATION ( 'Web Model 43636_21062', ( #128, #35 ), #32 ) ;
#106 = DIRECTION ( 'NONE',  ( 0.000000000000000000, 0.000000000000000000, 1.000000000000000000 ) ) ;
#107 = PRODUCT ( 'Web Model 43636_21062', 'Web Model 43636_21062', '', ( #62 ) ) ;
#108 = ORIENTED_EDGE ( 'NONE', *, *, #6, .T. ) ;
#109 = CC_DESIGN_PERSON_AND_ORGANIZATION_ASSIGNMENT ( #149, #64, ( #159 ) ) ;
#110 = AXIS2_PLACEMENT_3D ( 'NONE', #147, #100, #60 ) ;
#111 = ORIENTED_EDGE ( 'NONE', *, *, #126, .F. ) ;
#112 = CIRCLE ( 'NONE', #154, 12.69999999999999929 ) ;
#113 = APPROVAL_STATUS ( 'not_yet_approved' ) ;
#114 = CYLINDRICAL_SURFACE ( 'NONE', #160, 12.69999999999999929 ) ;
#115 = CYLINDRICAL_SURFACE ( 'NONE', #110, 12.69999999999999929 ) ;
#116 = APPROVAL_PERSON_ORGANIZATION ( #55, #70, #93 ) ;
#117 = CIRCLE ( 'NONE', #82, 12.69999999999999929 ) ;
#118 = DIRECTION ( 'NONE',  ( 1.000000000000000000, 0.000000000000000000, 0.000000000000000000 ) ) ;
#119 = PERSON_AND_ORGANIZATION_ROLE ( 'classification_officer' ) ;
#120 = VECTOR ( 'NONE', #36, 1000.000000000000000 ) ;
#121 = ADVANCED_FACE ( 'NONE', ( #165 ), #114, .T. ) ;
#122 = PERSON_AND_ORGANIZATION ( #146, #73 ) ;
#123 = DATE_AND_TIME ( #9, #81 ) ;
#124 = APPROVAL_STATUS ( 'not_yet_approved' ) ;
#125 = LOCAL_TIME ( 11, 40, 46.00000000000000000, #11 ) ;
#126 = EDGE_CURVE ( 'NONE', #43, #137, #112, .T. ) ;
#127 = DESIGN_CONTEXT ( 'detailed design', #83, 'design' ) ;
#128 = MANIFOLD_SOLID_BREP ( 'Boss-Extrude1', #67 ) ;
#129 = APPLICATION_PROTOCOL_DEFINITION ( 'international standard', 'config_control_design', 1994, #83 ) ;
#130 = DIRECTION ( 'NONE',  ( 1.000000000000000000, 0.000000000000000000, 0.000000000000000000 ) ) ;
#131 = DIRECTION ( 'NONE',  ( -1.000000000000000000, 0.000000000000000000, 0.000000000000000000 ) ) ;
#132 = DIRECTION ( 'NONE',  ( 0.000000000000000000, 0.000000000000000000, 1.000000000000000000 ) ) ;
#133 = LINE ( 'NONE', #50, #120 ) ;
#134 = DATE_AND_TIME ( #27, #10 ) ;
#135 = LOCAL_TIME ( 11, 40, 46.00000000000000000, #47 ) ;
#136 = CIRCLE ( 'NONE', #54, 12.69999999999999929 ) ;
#137 = VERTEX_POINT ( 'NONE', #101 ) ;
#138 = ADVANCED_FACE ( 'NONE', ( #166 ), #86, .F. ) ;
#139 = CARTESIAN_POINT ( 'NONE',  ( -12.69999999999999929, 0.000000000000000000, 1.000000000000000000 ) ) ;
#140 = ORIENTED_EDGE ( 'NONE', *, *, #164, .T. ) ;
#141 = CARTESIAN_POINT ( 'NONE',  ( -12.69999999999999929, 0.000000000000000000, 0.000000000000000000 ) ) ;
#142 = CARTESIAN_POINT ( 'NONE',  ( 0.000000000000000000, 0.000000000000000000, 1.000000000000000000 ) ) ;
#143 =( NAMED_UNIT ( * ) PLANE_ANGLE_UNIT ( ) SI_UNIT ( $, .RADIAN. ) );
#144 = DIRECTION ( 'NONE',  ( 0.000000000000000000, 0.000000000000000000, 1.000000000000000000 ) ) ;
#145 = CC_DESIGN_PERSON_AND_ORGANIZATION_ASSIGNMENT ( #148, #24, ( #107 ) ) ;
#146 = PERSON ( 'UNSPECIFIED', 'UNSPECIFIED', 'UNSPECIFIED', ('UNSPECIFIED'), ('UNSPECIFIED'), ('UNSPECIFIED') ) ;
#147 = CARTESIAN_POINT ( 'NONE',  ( 0.000000000000000000, 0.000000000000000000, 1.000000000000000000 ) ) ;
#148 = PERSON_AND_ORGANIZATION ( #146, #73 ) ;
#149 = PERSON_AND_ORGANIZATION ( #146, #73 ) ;
#150 = APPROVAL_STATUS ( 'not_yet_approved' ) ;
#151 = CC_DESIGN_APPROVAL ( #44, ( #103 ) ) ;
#152 = PERSON_AND_ORGANIZATION ( #146, #73 ) ;
#153 = CC_DESIGN_DATE_AND_TIME_ASSIGNMENT ( #3, #90, ( #25 ) ) ;
#154 = AXIS2_PLACEMENT_3D ( 'NONE', #99, #132, #72 ) ;
#155 = DIRECTION ( 'NONE',  ( 1.000000000000000000, 0.000000000000000000, -0.000000000000000000 ) ) ;
#156 = PRODUCT_DEFINITION_SHAPE ( 'NONE', 'NONE',  #103 ) ;
#157 = EDGE_LOOP ( 'NONE', ( #111, #5 ) ) ;
#158 = ORIENTED_EDGE ( 'NONE', *, *, #92, .F. ) ;
#159 = PRODUCT_DEFINITION_FORMATION_WITH_SPECIFIED_SOURCE ( 'ANY', '', #107, .NOT_KNOWN. ) ;
#160 = AXIS2_PLACEMENT_3D ( 'NONE', #22, #89, #131 ) ;
#161 = DIRECTION ( 'NONE',  ( -0.000000000000000000, -0.000000000000000000, -1.000000000000000000 ) ) ;
#162 = ORIENTED_EDGE ( 'NONE', *, *, #164, .F. ) ;
#163 = PERSON_AND_ORGANIZATION ( #146, #73 ) ;
#164 = EDGE_CURVE ( 'NONE', #19, #43, #133, .T. ) ;
#165 = FACE_OUTER_BOUND ( 'NONE', #28, .T. ) ;
#166 = FACE_OUTER_BOUND ( 'NONE', #157, .T. ) ;
#167 = DIRECTION ( 'NONE',  ( 0.000000000000000000, 0.000000000000000000, 1.000000000000000000 ) ) ;
#168 = SECURITY_CLASSIFICATION_LEVEL ( 'unclassified' ) ;
#169 = CC_DESIGN_PERSON_AND_ORGANIZATION_ASSIGNMENT ( #122, #76, ( #159 ) ) ;
#170 = ADVANCED_FACE ( 'NONE', ( #7 ), #115, .T. ) ;
#171 = CARTESIAN_POINT ( 'NONE',  ( 12.69999999999999929, 1.555301434917138433E-15, 1.000000000000000000 ) ) ;
#172 = APPROVAL_ROLE ( '' ) ;
#173 = DATE_AND_TIME ( #97, #135 ) ;
#174 = LOCAL_TIME ( 11, 40, 46.00000000000000000, #2 ) ;
#175 = CIRCLE ( 'NONE', #102, 12.69999999999999929 ) ;
ENDSEC;
END-ISO-10303-21;
