ISO-10303-21;
HEADER;
FILE_DESCRIPTION (( 'STEP AP203' ),
    '1' );
FILE_NAME ('Web Model 43368_20797.step',
    '2022-03-16T14:21:32',
    ( '' ),
    ( '' ),
    'SwSTEP 2.0',
    'SolidWorks 2021',
    '' );
FILE_SCHEMA (( 'CONFIG_CONTROL_DESIGN' ));
ENDSEC;

DATA;
#1 =( NAMED_UNIT ( * ) PLANE_ANGLE_UNIT ( ) SI_UNIT ( $, .RADIAN. ) );
#2 = DATE_AND_TIME ( #132, #80 ) ;
#3 = COORDINATED_UNIVERSAL_TIME_OFFSET ( 5, 0, .BEHIND. ) ;
#4 = SHAPE_DEFINITION_REPRESENTATION ( #35, #22 ) ;
#5 = CIRCLE ( 'NONE', #131, 10.00000000000000000 ) ;
#6 = COORDINATED_UNIVERSAL_TIME_OFFSET ( 5, 0, .BEHIND. ) ;
#7 = PERSON_AND_ORGANIZATION ( #141, #165 ) ;
#8 = ADVANCED_FACE ( 'NONE', ( #82 ), #136, .F. ) ;
#9 = APPLICATION_CONTEXT ( 'configuration controlled 3d designs of mechanical parts and assemblies' ) ;
#10 = CLOSED_SHELL ( 'NONE', ( #73, #158, #50, #8 ) ) ;
#11 = CC_DESIGN_APPROVAL ( #110, ( #29 ) ) ;
#12 = LOCAL_TIME ( 10, 21, 32.00000000000000000, #6 ) ;
#13 = DIRECTION ( 'NONE',  ( 0.000000000000000000, 0.000000000000000000, 1.000000000000000000 ) ) ;
#14 = UNCERTAINTY_MEASURE_WITH_UNIT (LENGTH_MEASURE( 1.000000000000000082E-05 ), #85, 'distance_accuracy_value', 'NONE');
#15 = PERSON_AND_ORGANIZATION ( #141, #165 ) ;
#16 = LOCAL_TIME ( 10, 21, 32.00000000000000000, #123 ) ;
#17 = EDGE_CURVE ( 'NONE', #41, #106, #61, .T. ) ;
#18 = DIRECTION ( 'NONE',  ( -0.000000000000000000, -0.000000000000000000, -1.000000000000000000 ) ) ;
#19 = APPLICATION_PROTOCOL_DEFINITION ( 'international standard', 'config_control_design', 1994, #172 ) ;
#20 = APPROVAL_PERSON_ORGANIZATION ( #7, #23, #60 ) ;
#21 = PERSON_AND_ORGANIZATION ( #141, #165 ) ;
#22 = ADVANCED_BREP_SHAPE_REPRESENTATION ( 'Web Model 43368_20797', ( #143, #97 ), #142 ) ;
#23 = APPROVAL ( #118, 'UNSPECIFIED' ) ;
#24 = ORIENTED_EDGE ( 'NONE', *, *, #104, .T. ) ;
#25 = ORIENTED_EDGE ( 'NONE', *, *, #130, .F. ) ;
#26 = DIRECTION ( 'NONE',  ( 1.000000000000000000, 0.000000000000000000, -0.000000000000000000 ) ) ;
#27 = LINE ( 'NONE', #112, #44 ) ;
#28 = APPROVAL_ROLE ( '' ) ;
#29 = PRODUCT_DEFINITION ( 'UNKNOWN', '', #59, #124 ) ;
#30 = AXIS2_PLACEMENT_3D ( 'NONE', #52, #13, #92 ) ;
#31 = DIRECTION ( 'NONE',  ( 1.000000000000000000, 0.000000000000000000, 0.000000000000000000 ) ) ;
#32 = PERSON_AND_ORGANIZATION ( #141, #165 ) ;
#33 = CIRCLE ( 'NONE', #37, 10.00000000000000000 ) ;
#34 = PERSON_AND_ORGANIZATION ( #141, #165 ) ;
#35 = PRODUCT_DEFINITION_SHAPE ( 'NONE', 'NONE',  #29 ) ;
#36 = ORIENTED_EDGE ( 'NONE', *, *, #17, .F. ) ;
#37 = AXIS2_PLACEMENT_3D ( 'NONE', #159, #109, #162 ) ;
#38 = ORIENTED_EDGE ( 'NONE', *, *, #153, .F. ) ;
#39 = VERTEX_POINT ( 'NONE', #145 ) ;
#40 = EDGE_CURVE ( 'NONE', #120, #39, #5, .T. ) ;
#41 = VERTEX_POINT ( 'NONE', #169 ) ;
#42 = CALENDAR_DATE ( 2022, 16, 3 ) ;
#43 = DIRECTION ( 'NONE',  ( -0.000000000000000000, -0.000000000000000000, -1.000000000000000000 ) ) ;
#44 = VECTOR ( 'NONE', #18, 1000.000000000000000 ) ;
#45 = CC_DESIGN_DATE_AND_TIME_ASSIGNMENT ( #76, #129, ( #29 ) ) ;
#46 = APPROVAL_DATE_TIME ( #102, #23 ) ;
#47 = PERSON_AND_ORGANIZATION_ROLE ( 'classification_officer' ) ;
#48 = APPROVAL_PERSON_ORGANIZATION ( #53, #110, #28 ) ;
#49 = ORIENTED_EDGE ( 'NONE', *, *, #135, .F. ) ;
#50 = ADVANCED_FACE ( 'NONE', ( #81 ), #175, .T. ) ;
#51 = ORIENTED_EDGE ( 'NONE', *, *, #135, .T. ) ;
#52 = CARTESIAN_POINT ( 'NONE',  ( 0.000000000000000000, 0.000000000000000000, 0.5000000000000000000 ) ) ;
#53 = PERSON_AND_ORGANIZATION ( #141, #165 ) ;
#54 = CYLINDRICAL_SURFACE ( 'NONE', #116, 10.00000000000000000 ) ;
#55 = DIRECTION ( 'NONE',  ( 1.000000000000000000, 0.000000000000000000, -0.000000000000000000 ) ) ;
#56 = CARTESIAN_POINT ( 'NONE',  ( 0.000000000000000000, 0.000000000000000000, 0.5000000000000000000 ) ) ;
#57 = AXIS2_PLACEMENT_3D ( 'NONE', #58, #152, #55 ) ;
#58 = CARTESIAN_POINT ( 'NONE',  ( 0.000000000000000000, 0.000000000000000000, 0.5000000000000000000 ) ) ;
#59 = PRODUCT_DEFINITION_FORMATION_WITH_SPECIFIED_SOURCE ( 'ANY', '', #155, .NOT_KNOWN. ) ;
#60 = APPROVAL_ROLE ( '' ) ;
#61 = CIRCLE ( 'NONE', #30, 10.00000000000000000 ) ;
#62 = LOCAL_TIME ( 10, 21, 32.00000000000000000, #156 ) ;
#63 = SECURITY_CLASSIFICATION_LEVEL ( 'unclassified' ) ;
#64 = APPROVAL_STATUS ( 'not_yet_approved' ) ;
#65 = DIRECTION ( 'NONE',  ( 0.000000000000000000, 0.000000000000000000, 1.000000000000000000 ) ) ;
#66 = EDGE_LOOP ( 'NONE', ( #170, #147 ) ) ;
#67 = ORIENTED_EDGE ( 'NONE', *, *, #153, .T. ) ;
#68 = CARTESIAN_POINT ( 'NONE',  ( 0.000000000000000000, 0.000000000000000000, 0.000000000000000000 ) ) ;
#69 = MECHANICAL_CONTEXT ( 'NONE', #172, 'mechanical' ) ;
#70 = APPROVAL ( #64, 'UNSPECIFIED' ) ;
#71 = PERSON_AND_ORGANIZATION_ROLE ( 'creator' ) ;
#72 = FACE_OUTER_BOUND ( 'NONE', #157, .T. ) ;
#73 = ADVANCED_FACE ( 'NONE', ( #174 ), #54, .T. ) ;
#74 = CARTESIAN_POINT ( 'NONE',  ( 0.000000000000000000, 0.000000000000000000, 0.5000000000000000000 ) ) ;
#75 = DIRECTION ( 'NONE',  ( 1.000000000000000000, 0.000000000000000000, 0.000000000000000000 ) ) ;
#76 = DATE_AND_TIME ( #78, #12 ) ;
#77 = PERSON_AND_ORGANIZATION ( #141, #165 ) ;
#78 = CALENDAR_DATE ( 2022, 16, 3 ) ;
#79 = CC_DESIGN_DATE_AND_TIME_ASSIGNMENT ( #166, #144, ( #134 ) ) ;
#80 = LOCAL_TIME ( 10, 21, 32.00000000000000000, #164 ) ;
#81 = FACE_OUTER_BOUND ( 'NONE', #66, .T. ) ;
#82 = FACE_OUTER_BOUND ( 'NONE', #146, .T. ) ;
#83 = ORIENTED_EDGE ( 'NONE', *, *, #104, .F. ) ;
#84 = DIRECTION ( 'NONE',  ( -0.000000000000000000, -0.000000000000000000, -1.000000000000000000 ) ) ;
#85 =( LENGTH_UNIT ( ) NAMED_UNIT ( * ) SI_UNIT ( .MILLI., .METRE. ) );
#86 = CIRCLE ( 'NONE', #121, 10.00000000000000000 ) ;
#87 = CARTESIAN_POINT ( 'NONE',  ( 0.000000000000000000, 0.000000000000000000, 0.000000000000000000 ) ) ;
#88 = CYLINDRICAL_SURFACE ( 'NONE', #95, 10.00000000000000000 ) ;
#89 = PERSON_AND_ORGANIZATION_ROLE ( 'design_owner' ) ;
#90 = APPROVAL_ROLE ( '' ) ;
#91 = LOCAL_TIME ( 10, 21, 32.00000000000000000, #3 ) ;
#92 = DIRECTION ( 'NONE',  ( 1.000000000000000000, 0.000000000000000000, 0.000000000000000000 ) ) ;
#93 = PRODUCT_RELATED_PRODUCT_CATEGORY ( 'detail', '', ( #155 ) ) ;
#94 = CC_DESIGN_PERSON_AND_ORGANIZATION_ASSIGNMENT ( #32, #89, ( #155 ) ) ;
#95 = AXIS2_PLACEMENT_3D ( 'NONE', #74, #43, #163 ) ;
#96 = ORIENTED_EDGE ( 'NONE', *, *, #40, .F. ) ;
#97 = AXIS2_PLACEMENT_3D ( 'NONE', #87, #101, #75 ) ;
#98 = DIRECTION ( 'NONE',  ( 0.000000000000000000, 0.000000000000000000, 1.000000000000000000 ) ) ;
#99 = APPROVAL_STATUS ( 'not_yet_approved' ) ;
#100 = CC_DESIGN_APPROVAL ( #70, ( #59 ) ) ;
#101 = DIRECTION ( 'NONE',  ( 0.000000000000000000, 0.000000000000000000, 1.000000000000000000 ) ) ;
#102 = DATE_AND_TIME ( #167, #62 ) ;
#103 = CC_DESIGN_PERSON_AND_ORGANIZATION_ASSIGNMENT ( #15, #71, ( #29 ) ) ;
#104 = EDGE_CURVE ( 'NONE', #39, #120, #33, .T. ) ;
#105 = PERSON_AND_ORGANIZATION_ROLE ( 'design_supplier' ) ;
#106 = VERTEX_POINT ( 'NONE', #107 ) ;
#107 = CARTESIAN_POINT ( 'NONE',  ( -10.00000000000000000, 0.000000000000000000, 0.5000000000000000000 ) ) ;
#108 = AXIS2_PLACEMENT_3D ( 'NONE', #68, #122, #26 ) ;
#109 = DIRECTION ( 'NONE',  ( 0.000000000000000000, 0.000000000000000000, 1.000000000000000000 ) ) ;
#110 = APPROVAL ( #99, 'UNSPECIFIED' ) ;
#111 = CARTESIAN_POINT ( 'NONE',  ( 0.000000000000000000, 0.000000000000000000, 0.5000000000000000000 ) ) ;
#112 = CARTESIAN_POINT ( 'NONE',  ( -10.00000000000000000, 0.000000000000000000, 0.5000000000000000000 ) ) ;
#113 = CALENDAR_DATE ( 2022, 16, 3 ) ;
#114 = CC_DESIGN_PERSON_AND_ORGANIZATION_ASSIGNMENT ( #77, #47, ( #134 ) ) ;
#115 = APPROVAL_DATE_TIME ( #2, #70 ) ;
#116 = AXIS2_PLACEMENT_3D ( 'NONE', #56, #125, #149 ) ;
#117 = CC_DESIGN_SECURITY_CLASSIFICATION ( #134, ( #59 ) ) ;
#118 = APPROVAL_STATUS ( 'not_yet_approved' ) ;
#119 = DIRECTION ( 'NONE',  ( 1.000000000000000000, 0.000000000000000000, 0.000000000000000000 ) ) ;
#120 = VERTEX_POINT ( 'NONE', #173 ) ;
#121 = AXIS2_PLACEMENT_3D ( 'NONE', #111, #98, #31 ) ;
#122 = DIRECTION ( 'NONE',  ( 0.000000000000000000, 0.000000000000000000, 1.000000000000000000 ) ) ;
#123 = COORDINATED_UNIVERSAL_TIME_OFFSET ( 5, 0, .BEHIND. ) ;
#124 = DESIGN_CONTEXT ( 'detailed design', #9, 'design' ) ;
#125 = DIRECTION ( 'NONE',  ( -0.000000000000000000, -0.000000000000000000, -1.000000000000000000 ) ) ;
#126 =( NAMED_UNIT ( * ) SI_UNIT ( $, .STERADIAN. ) SOLID_ANGLE_UNIT ( ) );
#127 = CC_DESIGN_PERSON_AND_ORGANIZATION_ASSIGNMENT ( #21, #105, ( #59 ) ) ;
#128 = PERSON_AND_ORGANIZATION ( #141, #165 ) ;
#129 = DATE_TIME_ROLE ( 'creation_date' ) ;
#130 = EDGE_CURVE ( 'NONE', #106, #41, #86, .T. ) ;
#131 = AXIS2_PLACEMENT_3D ( 'NONE', #133, #65, #119 ) ;
#132 = CALENDAR_DATE ( 2022, 16, 3 ) ;
#133 = CARTESIAN_POINT ( 'NONE',  ( 0.000000000000000000, 0.000000000000000000, 0.000000000000000000 ) ) ;
#134 = SECURITY_CLASSIFICATION ( '', '', #63 ) ;
#135 = EDGE_CURVE ( 'NONE', #106, #120, #27, .T. ) ;
#136 = PLANE ( 'NONE',  #108 ) ;
#137 = ORIENTED_EDGE ( 'NONE', *, *, #40, .T. ) ;
#138 = APPROVAL_DATE_TIME ( #150, #110 ) ;
#139 = CARTESIAN_POINT ( 'NONE',  ( 10.00000000000000000, 1.224646799147353256E-15, 0.5000000000000000000 ) ) ;
#140 = APPLICATION_PROTOCOL_DEFINITION ( 'international standard', 'config_control_design', 1994, #9 ) ;
#141 = PERSON ( 'UNSPECIFIED', 'UNSPECIFIED', 'UNSPECIFIED', ('UNSPECIFIED'), ('UNSPECIFIED'), ('UNSPECIFIED') ) ;
#142 =( GEOMETRIC_REPRESENTATION_CONTEXT ( 3 ) GLOBAL_UNCERTAINTY_ASSIGNED_CONTEXT ( ( #14 ) ) GLOBAL_UNIT_ASSIGNED_CONTEXT ( ( #85, #1, #126 ) ) REPRESENTATION_CONTEXT ( 'NONE', 'WORKASPACE' ) );
#143 = MANIFOLD_SOLID_BREP ( 'Boss-Extrude1', #10 ) ;
#144 = DATE_TIME_ROLE ( 'classification_date' ) ;
#145 = CARTESIAN_POINT ( 'NONE',  ( 10.00000000000000000, 1.224646799147353256E-15, 0.000000000000000000 ) ) ;
#146 = EDGE_LOOP ( 'NONE', ( #96, #83 ) ) ;
#147 = ORIENTED_EDGE ( 'NONE', *, *, #17, .T. ) ;
#148 = EDGE_LOOP ( 'NONE', ( #36, #67, #24, #49 ) ) ;
#149 = DIRECTION ( 'NONE',  ( -1.000000000000000000, 0.000000000000000000, 0.000000000000000000 ) ) ;
#150 = DATE_AND_TIME ( #42, #16 ) ;
#151 = CC_DESIGN_PERSON_AND_ORGANIZATION_ASSIGNMENT ( #34, #154, ( #59 ) ) ;
#152 = DIRECTION ( 'NONE',  ( 0.000000000000000000, 0.000000000000000000, 1.000000000000000000 ) ) ;
#153 = EDGE_CURVE ( 'NONE', #41, #39, #161, .T. ) ;
#154 = PERSON_AND_ORGANIZATION_ROLE ( 'creator' ) ;
#155 = PRODUCT ( 'Web Model 43368_20797', 'Web Model 43368_20797', '', ( #69 ) ) ;
#156 = COORDINATED_UNIVERSAL_TIME_OFFSET ( 5, 0, .BEHIND. ) ;
#157 = EDGE_LOOP ( 'NONE', ( #38, #25, #51, #137 ) ) ;
#158 = ADVANCED_FACE ( 'NONE', ( #72 ), #88, .T. ) ;
#159 = CARTESIAN_POINT ( 'NONE',  ( 0.000000000000000000, 0.000000000000000000, 0.000000000000000000 ) ) ;
#160 = APPROVAL_PERSON_ORGANIZATION ( #128, #70, #90 ) ;
#161 = LINE ( 'NONE', #139, #168 ) ;
#162 = DIRECTION ( 'NONE',  ( 1.000000000000000000, 0.000000000000000000, 0.000000000000000000 ) ) ;
#163 = DIRECTION ( 'NONE',  ( -1.000000000000000000, 0.000000000000000000, 0.000000000000000000 ) ) ;
#164 = COORDINATED_UNIVERSAL_TIME_OFFSET ( 5, 0, .BEHIND. ) ;
#165 = ORGANIZATION ( 'UNSPECIFIED', 'UNSPECIFIED', '' ) ;
#166 = DATE_AND_TIME ( #113, #91 ) ;
#167 = CALENDAR_DATE ( 2022, 16, 3 ) ;
#168 = VECTOR ( 'NONE', #84, 1000.000000000000000 ) ;
#169 = CARTESIAN_POINT ( 'NONE',  ( 10.00000000000000000, 1.224646799147353256E-15, 0.5000000000000000000 ) ) ;
#170 = ORIENTED_EDGE ( 'NONE', *, *, #130, .T. ) ;
#171 = CC_DESIGN_APPROVAL ( #23, ( #134 ) ) ;
#172 = APPLICATION_CONTEXT ( 'configuration controlled 3d designs of mechanical parts and assemblies' ) ;
#173 = CARTESIAN_POINT ( 'NONE',  ( -10.00000000000000000, 0.000000000000000000, 0.000000000000000000 ) ) ;
#174 = FACE_OUTER_BOUND ( 'NONE', #148, .T. ) ;
#175 = PLANE ( 'NONE',  #57 ) ;
ENDSEC;
END-ISO-10303-21;
