ISO-10303-21;
HEADER;
FILE_DESCRIPTION (( 'STEP AP203' ),
    '1' );
FILE_NAME ('Web Model 68369_48902.step',
    '2017-03-01T19:00:07',
    ( '' ),
    ( '' ),
    'SwSTEP 2.0',
    'SolidWorks 2016',
    '' );
FILE_SCHEMA (( 'CONFIG_CONTROL_DESIGN' ));
ENDSEC;

DATA;
#1 = VECTOR ( 'NONE', #188, 1000.000000000000000 ) ;
#2 = LOCAL_TIME ( 14, 0, 7.000000000000000000, #152 ) ;
#3 = DIRECTION ( 'NONE',  ( 1.000000000000000000, 0.0000000000000000000, 0.0000000000000000000 ) ) ;
#4 = LINE ( 'NONE', #227, #207 ) ;
#5 = EDGE_LOOP ( 'NONE', ( #9, #19, #204, #186 ) ) ;
#6 = LINE ( 'NONE', #236, #1 ) ;
#7 = ORIENTED_EDGE ( 'NONE', *, *, #217, .T. ) ;
#8 = ORIENTED_EDGE ( 'NONE', *, *, #31, .F. ) ;
#9 = ORIENTED_EDGE ( 'NONE', *, *, #120, .F. ) ;
#10 = VECTOR ( 'NONE', #138, 1000.000000000000000 ) ;
#11 = ORIENTED_EDGE ( 'NONE', *, *, #166, .T. ) ;
#12 = VERTEX_POINT ( 'NONE', #113 ) ;
#13 = ORIENTED_EDGE ( 'NONE', *, *, #80, .T. ) ;
#14 = VERTEX_POINT ( 'NONE', #131 ) ;
#15 = APPLICATION_PROTOCOL_DEFINITION ( 'international standard', 'config_control_design', 1994, #128 ) ;
#16 = ORIENTED_EDGE ( 'NONE', *, *, #74, .T. ) ;
#17 = DIRECTION ( 'NONE',  ( -1.000000000000000000, -1.387778780781445900E-016, 0.0000000000000000000 ) ) ;
#18 = CC_DESIGN_APPROVAL ( #94, ( #143 ) ) ;
#19 = ORIENTED_EDGE ( 'NONE', *, *, #63, .F. ) ;
#20 = VECTOR ( 'NONE', #30, 1000.000000000000000 ) ;
#21 = APPROVAL_STATUS ( 'not_yet_approved' ) ;
#22 = VERTEX_POINT ( 'NONE', #161 ) ;
#23 = VERTEX_POINT ( 'NONE', #76 ) ;
#24 = CARTESIAN_POINT ( 'NONE',  ( -12.49999999999999800, 12.49999999999999600, 3.000000000000000000 ) ) ;
#25 = PERSON_AND_ORGANIZATION ( #106, #69 ) ;
#26 = DIRECTION ( 'NONE',  ( -1.000000000000000000, 0.0000000000000000000, -0.0000000000000000000 ) ) ;
#27 = LINE ( 'NONE', #34, #20 ) ;
#28 = VERTEX_POINT ( 'NONE', #116 ) ;
#29 = PRODUCT_DEFINITION_SHAPE ( 'NONE', 'NONE',  #185 ) ;
#30 = DIRECTION ( 'NONE',  ( -0.0000000000000000000, -0.0000000000000000000, -1.000000000000000000 ) ) ;
#31 = EDGE_CURVE ( 'NONE', #62, #96, #133, .T. ) ;
#32 = CC_DESIGN_PERSON_AND_ORGANIZATION_ASSIGNMENT ( #90, #75, ( #143 ) ) ;
#33 = FACE_OUTER_BOUND ( 'NONE', #53, .T. ) ;
#34 = CARTESIAN_POINT ( 'NONE',  ( 12.49999999999999500, 12.50000000000000000, 3.000000000000000000 ) ) ;
#35 = AXIS2_PLACEMENT_3D ( 'NONE', #210, #71, #26 ) ;
#36 = DATE_AND_TIME ( #233, #2 ) ;
#37 = PLANE ( 'NONE',  #86 ) ;
#38 = CARTESIAN_POINT ( 'NONE',  ( 0.0000000000000000000, 0.0000000000000000000, 0.0000000000000000000 ) ) ;
#39 = CARTESIAN_POINT ( 'NONE',  ( 12.49999999999999500, 12.50000000000000000, 3.000000000000000000 ) ) ;
#40 = LINE ( 'NONE', #164, #72 ) ;
#41 = DATE_AND_TIME ( #54, #89 ) ;
#42 = CARTESIAN_POINT ( 'NONE',  ( 12.50000000000000500, -12.50000000000000000, 3.000000000000000000 ) ) ;
#43 = PLANE ( 'NONE',  #195 ) ;
#44 = CARTESIAN_POINT ( 'NONE',  ( -12.49999999999999500, -12.50000000000000400, 3.000000000000000000 ) ) ;
#45 = AXIS2_PLACEMENT_3D ( 'NONE', #38, #167, #3 ) ;
#46 = EDGE_CURVE ( 'NONE', #102, #12, #27, .T. ) ;
#47 =( NAMED_UNIT ( * ) PLANE_ANGLE_UNIT ( ) SI_UNIT ( $, .RADIAN. ) );
#48 = APPLICATION_CONTEXT ( 'configuration controlled 3d designs of mechanical parts and assemblies' ) ;
#49 = CC_DESIGN_DATE_AND_TIME_ASSIGNMENT ( #87, #79, ( #143 ) ) ;
#50 = LINE ( 'NONE', #208, #78 ) ;
#51 = CLOSED_SHELL ( 'NONE', ( #163, #173, #157, #202, #88, #59 ) ) ;
#52 = VECTOR ( 'NONE', #162, 1000.000000000000000 ) ;
#53 = EDGE_LOOP ( 'NONE', ( #177, #229, #97, #123 ) ) ;
#54 = CALENDAR_DATE ( 2017, 1, 3 ) ;
#55 = EDGE_LOOP ( 'NONE', ( #169, #124, #126, #154 ) ) ;
#56 = DIRECTION ( 'NONE',  ( 0.0000000000000000000, 0.0000000000000000000, -1.000000000000000000 ) ) ;
#57 = VECTOR ( 'NONE', #100, 1000.000000000000000 ) ;
#58 = CALENDAR_DATE ( 2017, 1, 3 ) ;
#59 = ADVANCED_FACE ( 'NONE', ( #183 ), #37, .T. ) ;
#60 = LINE ( 'NONE', #44, #52 ) ;
#61 = CARTESIAN_POINT ( 'NONE',  ( 12.49999999999999500, 12.50000000000000000, 3.000000000000000000 ) ) ;
#62 = VERTEX_POINT ( 'NONE', #93 ) ;
#63 = EDGE_CURVE ( 'NONE', #12, #22, #4, .T. ) ;
#64 = CC_DESIGN_PERSON_AND_ORGANIZATION_ASSIGNMENT ( #101, #85, ( #215 ) ) ;
#65 = ADVANCED_BREP_SHAPE_REPRESENTATION ( 'Web Model 68369_48902', ( #203, #45 ), #134 ) ;
#66 = DIRECTION ( 'NONE',  ( -1.000000000000000000, -4.163336342344336500E-016, 0.0000000000000000000 ) ) ;
#67 = CC_DESIGN_PERSON_AND_ORGANIZATION_ASSIGNMENT ( #82, #155, ( #159 ) ) ;
#68 = APPROVAL_DATE_TIME ( #168, #206 ) ;
#69 = ORGANIZATION ( 'UNSPECIFIED', 'UNSPECIFIED', '' ) ;
#70 = UNCERTAINTY_MEASURE_WITH_UNIT (LENGTH_MEASURE( 1.000000000000000100E-005 ), #197, 'distance_accuracy_value', 'NONE');
#71 = DIRECTION ( 'NONE',  ( 0.0000000000000000000, 0.0000000000000000000, -1.000000000000000000 ) ) ;
#72 = VECTOR ( 'NONE', #151, 1000.000000000000000 ) ;
#73 = APPLICATION_PROTOCOL_DEFINITION ( 'international standard', 'config_control_design', 1994, #48 ) ;
#74 = EDGE_CURVE ( 'NONE', #28, #14, #225, .T. ) ;
#75 = PERSON_AND_ORGANIZATION_ROLE ( 'classification_officer' ) ;
#76 = CARTESIAN_POINT ( 'NONE',  ( -12.49999999999999500, -12.50000000000000400, 0.0000000000000000000 ) ) ;
#77 = PERSON_AND_ORGANIZATION_ROLE ( 'design_supplier' ) ;
#78 = VECTOR ( 'NONE', #117, 1000.000000000000000 ) ;
#79 = DATE_TIME_ROLE ( 'classification_date' ) ;
#80 = EDGE_CURVE ( 'NONE', #102, #28, #147, .T. ) ;
#81 = COORDINATED_UNIVERSAL_TIME_OFFSET ( 5, 0, .BEHIND. ) ;
#82 = PERSON_AND_ORGANIZATION ( #106, #69 ) ;
#83 = CARTESIAN_POINT ( 'NONE',  ( 12.50000000000000500, -12.50000000000000000, 3.000000000000000000 ) ) ;
#84 = DIRECTION ( 'NONE',  ( -1.387778780781445400E-016, 1.000000000000000000, 0.0000000000000000000 ) ) ;
#85 = PERSON_AND_ORGANIZATION_ROLE ( 'creator' ) ;
#86 = AXIS2_PLACEMENT_3D ( 'NONE', #119, #56, #95 ) ;
#87 = DATE_AND_TIME ( #211, #104 ) ;
#88 = ADVANCED_FACE ( 'NONE', ( #115 ), #105, .F. ) ;
#89 = LOCAL_TIME ( 14, 0, 7.000000000000000000, #91 ) ;
#90 = PERSON_AND_ORGANIZATION ( #106, #69 ) ;
#91 = COORDINATED_UNIVERSAL_TIME_OFFSET ( 5, 0, .BEHIND. ) ;
#92 = EDGE_CURVE ( 'NONE', #28, #22, #156, .T. ) ;
#93 = CARTESIAN_POINT ( 'NONE',  ( 12.50000000000000500, -12.50000000000000000, 3.000000000000000000 ) ) ;
#94 = APPROVAL ( #21, 'UNSPECIFIED' ) ;
#95 = DIRECTION ( 'NONE',  ( -1.000000000000000000, 0.0000000000000000000, -0.0000000000000000000 ) ) ;
#96 = VERTEX_POINT ( 'NONE', #190 ) ;
#97 = ORIENTED_EDGE ( 'NONE', *, *, #74, .F. ) ;
#98 = CARTESIAN_POINT ( 'NONE',  ( 12.49999999999999500, 12.50000000000000000, 3.000000000000000000 ) ) ;
#99 = APPROVAL_ROLE ( '' ) ;
#100 = DIRECTION ( 'NONE',  ( 1.000000000000000000, 1.387778780781445700E-016, -0.0000000000000000000 ) ) ;
#101 = PERSON_AND_ORGANIZATION ( #106, #69 ) ;
#102 = VERTEX_POINT ( 'NONE', #39 ) ;
#103 = CC_DESIGN_APPROVAL ( #206, ( #185 ) ) ;
#104 = LOCAL_TIME ( 14, 0, 7.000000000000000000, #219 ) ;
#105 = PLANE ( 'NONE',  #35 ) ;
#106 = PERSON ( 'UNSPECIFIED', 'UNSPECIFIED', 'UNSPECIFIED', ('UNSPECIFIED'), ('UNSPECIFIED'), ('UNSPECIFIED') ) ;
#107 = EDGE_CURVE ( 'NONE', #23, #96, #232, .T. ) ;
#108 = CARTESIAN_POINT ( 'NONE',  ( 12.50000000000000500, -12.50000000000000000, 0.0000000000000000000 ) ) ;
#109 = EDGE_CURVE ( 'NONE', #62, #102, #40, .T. ) ;
#110 = APPROVAL_ROLE ( '' ) ;
#111 = PRODUCT_RELATED_PRODUCT_CATEGORY ( 'detail', '', ( #159 ) ) ;
#112 = LINE ( 'NONE', #83, #57 ) ;
#113 = CARTESIAN_POINT ( 'NONE',  ( 12.49999999999999500, 12.50000000000000000, 0.0000000000000000000 ) ) ;
#114 = AXIS2_PLACEMENT_3D ( 'NONE', #98, #196, #194 ) ;
#115 = FACE_OUTER_BOUND ( 'NONE', #178, .T. ) ;
#116 = CARTESIAN_POINT ( 'NONE',  ( -12.49999999999999800, 12.49999999999999600, 3.000000000000000000 ) ) ;
#117 = DIRECTION ( 'NONE',  ( 1.387778780781445700E-016, -1.000000000000000000, 0.0000000000000000000 ) ) ;
#118 = EDGE_CURVE ( 'NONE', #96, #12, #6, .T. ) ;
#119 = CARTESIAN_POINT ( 'NONE',  ( -12.49999999999999500, -12.50000000000000400, 0.0000000000000000000 ) ) ;
#120 = EDGE_CURVE ( 'NONE', #22, #23, #50, .T. ) ;
#121 = SECURITY_CLASSIFICATION_LEVEL ( 'unclassified' ) ;
#122 = SHAPE_DEFINITION_REPRESENTATION ( #29, #65 ) ;
#123 = ORIENTED_EDGE ( 'NONE', *, *, #92, .T. ) ;
#124 = ORIENTED_EDGE ( 'NONE', *, *, #46, .F. ) ;
#125 = ORIENTED_EDGE ( 'NONE', *, *, #63, .T. ) ;
#126 = ORIENTED_EDGE ( 'NONE', *, *, #109, .F. ) ;
#127 = ORIENTED_EDGE ( 'NONE', *, *, #80, .F. ) ;
#128 = APPLICATION_CONTEXT ( 'configuration controlled 3d designs of mechanical parts and assemblies' ) ;
#129 = ORIENTED_EDGE ( 'NONE', *, *, #109, .T. ) ;
#130 = CC_DESIGN_SECURITY_CLASSIFICATION ( #143, ( #215 ) ) ;
#131 = CARTESIAN_POINT ( 'NONE',  ( -12.49999999999999500, -12.50000000000000400, 3.000000000000000000 ) ) ;
#132 = VECTOR ( 'NONE', #146, 1000.000000000000000 ) ;
#133 = LINE ( 'NONE', #42, #10 ) ;
#134 =( GEOMETRIC_REPRESENTATION_CONTEXT ( 3 ) GLOBAL_UNCERTAINTY_ASSIGNED_CONTEXT ( ( #70 ) ) GLOBAL_UNIT_ASSIGNED_CONTEXT ( ( #197, #47, #235 ) ) REPRESENTATION_CONTEXT ( 'NONE', 'WORKASPACE' ) );
#135 = CARTESIAN_POINT ( 'NONE',  ( -12.49999999999999800, 12.49999999999999600, 3.000000000000000000 ) ) ;
#136 = PLANE ( 'NONE',  #114 ) ;
#137 = DATE_TIME_ROLE ( 'creation_date' ) ;
#138 = DIRECTION ( 'NONE',  ( -0.0000000000000000000, -0.0000000000000000000, -1.000000000000000000 ) ) ;
#139 = CC_DESIGN_PERSON_AND_ORGANIZATION_ASSIGNMENT ( #182, #231, ( #185 ) ) ;
#140 = DIRECTION ( 'NONE',  ( -1.387778780781445400E-016, 1.000000000000000000, 0.0000000000000000000 ) ) ;
#141 = PERSON_AND_ORGANIZATION ( #106, #69 ) ;
#142 = EDGE_LOOP ( 'NONE', ( #181, #8, #150, #7 ) ) ;
#143 = SECURITY_CLASSIFICATION ( '', '', #121 ) ;
#144 = AXIS2_PLACEMENT_3D ( 'NONE', #61, #66, #171 ) ;
#145 = DIRECTION ( 'NONE',  ( 1.000000000000000000, 1.387778780781445700E-016, -0.0000000000000000000 ) ) ;
#146 = DIRECTION ( 'NONE',  ( -1.000000000000000000, -1.387778780781445900E-016, 0.0000000000000000000 ) ) ;
#147 = LINE ( 'NONE', #160, #132 ) ;
#148 = APPROVAL ( #180, 'UNSPECIFIED' ) ;
#149 = VECTOR ( 'NONE', #209, 1000.000000000000000 ) ;
#150 = ORIENTED_EDGE ( 'NONE', *, *, #166, .F. ) ;
#151 = DIRECTION ( 'NONE',  ( -4.163336342344337000E-016, 1.000000000000000000, -0.0000000000000000000 ) ) ;
#152 = COORDINATED_UNIVERSAL_TIME_OFFSET ( 5, 0, .BEHIND. ) ;
#153 = LOCAL_TIME ( 14, 0, 7.000000000000000000, #212 ) ;
#154 = ORIENTED_EDGE ( 'NONE', *, *, #31, .T. ) ;
#155 = PERSON_AND_ORGANIZATION_ROLE ( 'design_owner' ) ;
#156 = LINE ( 'NONE', #24, #149 ) ;
#157 = ADVANCED_FACE ( 'NONE', ( #174 ), #198, .F. ) ;
#158 = APPROVAL_ROLE ( '' ) ;
#159 = PRODUCT ( 'Web Model 68369_48902', 'Web Model 68369_48902', '', ( #226 ) ) ;
#160 = CARTESIAN_POINT ( 'NONE',  ( 12.49999999999999500, 12.50000000000000000, 3.000000000000000000 ) ) ;
#161 = CARTESIAN_POINT ( 'NONE',  ( -12.49999999999999800, 12.49999999999999600, 0.0000000000000000000 ) ) ;
#162 = DIRECTION ( 'NONE',  ( -0.0000000000000000000, -0.0000000000000000000, -1.000000000000000000 ) ) ;
#163 = ADVANCED_FACE ( 'NONE', ( #33 ), #43, .F. ) ;
#164 = CARTESIAN_POINT ( 'NONE',  ( 12.49999999999999500, 12.50000000000000000, 3.000000000000000000 ) ) ;
#165 = DESIGN_CONTEXT ( 'detailed design', #128, 'design' ) ;
#166 = EDGE_CURVE ( 'NONE', #14, #62, #112, .T. ) ;
#167 = DIRECTION ( 'NONE',  ( 0.0000000000000000000, 0.0000000000000000000, 1.000000000000000000 ) ) ;
#168 = DATE_AND_TIME ( #58, #223 ) ;
#169 = ORIENTED_EDGE ( 'NONE', *, *, #118, .T. ) ;
#170 = DATE_AND_TIME ( #192, #153 ) ;
#171 = DIRECTION ( 'NONE',  ( 4.163336342344336500E-016, -1.000000000000000000, 0.0000000000000000000 ) ) ;
#172 = ORIENTED_EDGE ( 'NONE', *, *, #92, .F. ) ;
#173 = ADVANCED_FACE ( 'NONE', ( #201 ), #189, .F. ) ;
#174 = FACE_OUTER_BOUND ( 'NONE', #55, .T. ) ;
#175 = AXIS2_PLACEMENT_3D ( 'NONE', #184, #84, #179 ) ;
#176 = FACE_OUTER_BOUND ( 'NONE', #220, .T. ) ;
#177 = ORIENTED_EDGE ( 'NONE', *, *, #120, .T. ) ;
#178 = EDGE_LOOP ( 'NONE', ( #16, #11, #129, #13 ) ) ;
#179 = DIRECTION ( 'NONE',  ( -1.000000000000000000, -1.387778780781445400E-016, 0.0000000000000000000 ) ) ;
#180 = APPROVAL_STATUS ( 'not_yet_approved' ) ;
#181 = ORIENTED_EDGE ( 'NONE', *, *, #107, .T. ) ;
#182 = PERSON_AND_ORGANIZATION ( #106, #69 ) ;
#183 = FACE_OUTER_BOUND ( 'NONE', #5, .T. ) ;
#184 = CARTESIAN_POINT ( 'NONE',  ( 12.50000000000000500, -12.50000000000000000, 3.000000000000000000 ) ) ;
#185 = PRODUCT_DEFINITION ( 'UNKNOWN', '', #215, #165 ) ;
#186 = ORIENTED_EDGE ( 'NONE', *, *, #107, .F. ) ;
#187 = VECTOR ( 'NONE', #234, 1000.000000000000000 ) ;
#188 = DIRECTION ( 'NONE',  ( -4.163336342344337000E-016, 1.000000000000000000, -0.0000000000000000000 ) ) ;
#189 = PLANE ( 'NONE',  #175 ) ;
#190 = CARTESIAN_POINT ( 'NONE',  ( 12.50000000000000500, -12.50000000000000000, 0.0000000000000000000 ) ) ;
#191 = APPROVAL_PERSON_ORGANIZATION ( #218, #148, #158 ) ;
#192 = CALENDAR_DATE ( 2017, 1, 3 ) ;
#193 = CC_DESIGN_DATE_AND_TIME_ASSIGNMENT ( #170, #137, ( #185 ) ) ;
#194 = DIRECTION ( 'NONE',  ( 1.000000000000000000, 1.387778780781445900E-016, 0.0000000000000000000 ) ) ;
#195 = AXIS2_PLACEMENT_3D ( 'NONE', #135, #213, #140 ) ;
#196 = DIRECTION ( 'NONE',  ( 1.387778780781445900E-016, -1.000000000000000000, 0.0000000000000000000 ) ) ;
#197 =( LENGTH_UNIT ( ) NAMED_UNIT ( * ) SI_UNIT ( .MILLI., .METRE. ) );
#198 = PLANE ( 'NONE',  #144 ) ;
#199 = APPROVAL_PERSON_ORGANIZATION ( #141, #206, #110 ) ;
#200 = PERSON_AND_ORGANIZATION ( #106, #69 ) ;
#201 = FACE_OUTER_BOUND ( 'NONE', #142, .T. ) ;
#202 = ADVANCED_FACE ( 'NONE', ( #176 ), #136, .F. ) ;
#203 = MANIFOLD_SOLID_BREP ( 'Extrude1', #51 ) ;
#204 = ORIENTED_EDGE ( 'NONE', *, *, #118, .F. ) ;
#205 = APPROVAL_DATE_TIME ( #41, #94 ) ;
#206 = APPROVAL ( #214, 'UNSPECIFIED' ) ;
#207 = VECTOR ( 'NONE', #17, 1000.000000000000000 ) ;
#208 = CARTESIAN_POINT ( 'NONE',  ( -12.49999999999999800, 12.49999999999999600, 0.0000000000000000000 ) ) ;
#209 = DIRECTION ( 'NONE',  ( -0.0000000000000000000, -0.0000000000000000000, -1.000000000000000000 ) ) ;
#210 = CARTESIAN_POINT ( 'NONE',  ( -12.49999999999999500, -12.50000000000000400, 3.000000000000000000 ) ) ;
#211 = CALENDAR_DATE ( 2017, 1, 3 ) ;
#212 = COORDINATED_UNIVERSAL_TIME_OFFSET ( 5, 0, .BEHIND. ) ;
#213 = DIRECTION ( 'NONE',  ( 1.000000000000000000, 1.387778780781445400E-016, -0.0000000000000000000 ) ) ;
#214 = APPROVAL_STATUS ( 'not_yet_approved' ) ;
#215 = PRODUCT_DEFINITION_FORMATION_WITH_SPECIFIED_SOURCE ( 'ANY', '', #159, .NOT_KNOWN. ) ;
#216 = APPROVAL_PERSON_ORGANIZATION ( #200, #94, #99 ) ;
#217 = EDGE_CURVE ( 'NONE', #14, #23, #60, .T. ) ;
#218 = PERSON_AND_ORGANIZATION ( #106, #69 ) ;
#219 = COORDINATED_UNIVERSAL_TIME_OFFSET ( 5, 0, .BEHIND. ) ;
#220 = EDGE_LOOP ( 'NONE', ( #125, #172, #127, #230 ) ) ;
#221 = CC_DESIGN_PERSON_AND_ORGANIZATION_ASSIGNMENT ( #25, #77, ( #215 ) ) ;
#222 = APPROVAL_DATE_TIME ( #36, #148 ) ;
#223 = LOCAL_TIME ( 14, 0, 7.000000000000000000, #81 ) ;
#224 = VECTOR ( 'NONE', #145, 1000.000000000000000 ) ;
#225 = LINE ( 'NONE', #237, #187 ) ;
#226 = MECHANICAL_CONTEXT ( 'NONE', #48, 'mechanical' ) ;
#227 = CARTESIAN_POINT ( 'NONE',  ( 12.49999999999999500, 12.50000000000000000, 0.0000000000000000000 ) ) ;
#228 = CC_DESIGN_APPROVAL ( #148, ( #215 ) ) ;
#229 = ORIENTED_EDGE ( 'NONE', *, *, #217, .F. ) ;
#230 = ORIENTED_EDGE ( 'NONE', *, *, #46, .T. ) ;
#231 = PERSON_AND_ORGANIZATION_ROLE ( 'creator' ) ;
#232 = LINE ( 'NONE', #108, #224 ) ;
#233 = CALENDAR_DATE ( 2017, 1, 3 ) ;
#234 = DIRECTION ( 'NONE',  ( 1.387778780781445700E-016, -1.000000000000000000, 0.0000000000000000000 ) ) ;
#235 =( NAMED_UNIT ( * ) SI_UNIT ( $, .STERADIAN. ) SOLID_ANGLE_UNIT ( ) );
#236 = CARTESIAN_POINT ( 'NONE',  ( 12.49999999999999500, 12.50000000000000000, 0.0000000000000000000 ) ) ;
#237 = CARTESIAN_POINT ( 'NONE',  ( -12.49999999999999800, 12.49999999999999600, 3.000000000000000000 ) ) ;
ENDSEC;
END-ISO-10303-21;
