ISO-10303-21;
HEADER;
FILE_DESCRIPTION (( 'STEP AP203' ),
    '1' );
FILE_NAME ('Web Model 84492_48199.step',
    '2017-05-19T14:52:32',
    ( '' ),
    ( '' ),
    'SwSTEP 2.0',
    'SolidWorks 2016',
    '' );
FILE_SCHEMA (( 'CONFIG_CONTROL_DESIGN' ));
ENDSEC;

DATA;
#1 = AXIS2_PLACEMENT_3D ( 'NONE', #187, #143, #173 ) ;
#2 = ORIENTED_EDGE ( 'NONE', *, *, #119, .F. ) ;
#3 = APPROVAL ( #186, 'UNSPECIFIED' ) ;
#4 = ORIENTED_EDGE ( 'NONE', *, *, #53, .F. ) ;
#5 = CALENDAR_DATE ( 2017, 19, 5 ) ;
#6 = CC_DESIGN_PERSON_AND_ORGANIZATION_ASSIGNMENT ( #26, #19, ( #221 ) ) ;
#7 = CARTESIAN_POINT ( 'NONE',  ( -25.00000000000000000, -25.00000000000000000, 4.000000000000000000 ) ) ;
#8 = ADVANCED_FACE ( 'NONE', ( #133 ), #17, .F. ) ;
#9 = ORIENTED_EDGE ( 'NONE', *, *, #98, .T. ) ;
#10 = LINE ( 'NONE', #208, #172 ) ;
#11 = CARTESIAN_POINT ( 'NONE',  ( 24.99999999999999600, 24.99999999999999600, 0.0000000000000000000 ) ) ;
#12 = DATE_AND_TIME ( #5, #27 ) ;
#13 = CARTESIAN_POINT ( 'NONE',  ( 25.00000000000000700, -25.00000000000000000, 0.0000000000000000000 ) ) ;
#14 =( LENGTH_UNIT ( ) NAMED_UNIT ( * ) SI_UNIT ( .MILLI., .METRE. ) );
#15 = CARTESIAN_POINT ( 'NONE',  ( -25.00000000000000000, -25.00000000000000000, 4.000000000000000000 ) ) ;
#16 = PERSON_AND_ORGANIZATION_ROLE ( 'design_owner' ) ;
#17 = PLANE ( 'NONE',  #1 ) ;
#18 = ADVANCED_FACE ( 'NONE', ( #203 ), #233, .F. ) ;
#19 = PERSON_AND_ORGANIZATION_ROLE ( 'design_supplier' ) ;
#20 = PLANE ( 'NONE',  #174 ) ;
#21 = APPROVAL ( #189, 'UNSPECIFIED' ) ;
#22 = SECURITY_CLASSIFICATION ( '', '', #34 ) ;
#23 = COORDINATED_UNIVERSAL_TIME_OFFSET ( 5, 0, .BEHIND. ) ;
#24 = VERTEX_POINT ( 'NONE', #111 ) ;
#25 = ORIENTED_EDGE ( 'NONE', *, *, #206, .T. ) ;
#26 = PERSON_AND_ORGANIZATION ( #197, #142 ) ;
#27 = LOCAL_TIME ( 10, 52, 32.00000000000000000, #54 ) ;
#28 = PERSON_AND_ORGANIZATION ( #197, #142 ) ;
#29 = FACE_OUTER_BOUND ( 'NONE', #144, .T. ) ;
#30 = EDGE_CURVE ( 'NONE', #24, #180, #220, .T. ) ;
#31 = DIRECTION ( 'NONE',  ( 1.000000000000000000, 0.0000000000000000000, 0.0000000000000000000 ) ) ;
#32 = APPROVAL_ROLE ( '' ) ;
#33 = DIRECTION ( 'NONE',  ( 6.938893903907228400E-017, -1.000000000000000000, 0.0000000000000000000 ) ) ;
#34 = SECURITY_CLASSIFICATION_LEVEL ( 'unclassified' ) ;
#35 = PLANE ( 'NONE',  #196 ) ;
#36 = VECTOR ( 'NONE', #225, 1000.000000000000000 ) ;
#37 = VERTEX_POINT ( 'NONE', #229 ) ;
#38 = VERTEX_POINT ( 'NONE', #73 ) ;
#39 = ORIENTED_EDGE ( 'NONE', *, *, #122, .T. ) ;
#40 = EDGE_CURVE ( 'NONE', #37, #113, #146, .T. ) ;
#41 = CC_DESIGN_APPROVAL ( #3, ( #162 ) ) ;
#42 = APPROVAL_PERSON_ORGANIZATION ( #99, #3, #32 ) ;
#43 = LINE ( 'NONE', #135, #93 ) ;
#44 = ADVANCED_FACE ( 'NONE', ( #29 ), #20, .F. ) ;
#45 = EDGE_CURVE ( 'NONE', #100, #50, #212, .T. ) ;
#46 = PERSON_AND_ORGANIZATION_ROLE ( 'classification_officer' ) ;
#47 = DATE_AND_TIME ( #127, #91 ) ;
#48 = MECHANICAL_CONTEXT ( 'NONE', #70, 'mechanical' ) ;
#49 = APPLICATION_CONTEXT ( 'configuration controlled 3d designs of mechanical parts and assemblies' ) ;
#50 = VERTEX_POINT ( 'NONE', #199 ) ;
#51 = CLOSED_SHELL ( 'NONE', ( #149, #18, #44, #8, #75, #121 ) ) ;
#52 = SHAPE_DEFINITION_REPRESENTATION ( #194, #213 ) ;
#53 = EDGE_CURVE ( 'NONE', #37, #24, #237, .T. ) ;
#54 = COORDINATED_UNIVERSAL_TIME_OFFSET ( 5, 0, .BEHIND. ) ;
#55 = CC_DESIGN_SECURITY_CLASSIFICATION ( #22, ( #221 ) ) ;
#56 = VECTOR ( 'NONE', #155, 1000.000000000000000 ) ;
#57 = AXIS2_PLACEMENT_3D ( 'NONE', #157, #88, #160 ) ;
#58 = ORIENTED_EDGE ( 'NONE', *, *, #45, .F. ) ;
#59 = CARTESIAN_POINT ( 'NONE',  ( 25.00000000000000700, -25.00000000000000000, 4.000000000000000000 ) ) ;
#60 = ORIENTED_EDGE ( 'NONE', *, *, #40, .F. ) ;
#61 = CC_DESIGN_PERSON_AND_ORGANIZATION_ASSIGNMENT ( #120, #170, ( #162 ) ) ;
#62 = ORIENTED_EDGE ( 'NONE', *, *, #40, .T. ) ;
#63 = DIRECTION ( 'NONE',  ( -0.0000000000000000000, -0.0000000000000000000, -1.000000000000000000 ) ) ;
#64 = DIRECTION ( 'NONE',  ( 6.938893903907228400E-017, -1.000000000000000000, 0.0000000000000000000 ) ) ;
#65 = ORIENTED_EDGE ( 'NONE', *, *, #53, .T. ) ;
#66 = EDGE_CURVE ( 'NONE', #38, #145, #132, .T. ) ;
#67 = DIRECTION ( 'NONE',  ( -0.0000000000000000000, 0.0000000000000000000, 1.000000000000000000 ) ) ;
#68 = COORDINATED_UNIVERSAL_TIME_OFFSET ( 5, 0, .BEHIND. ) ;
#69 = CARTESIAN_POINT ( 'NONE',  ( -25.00000000000000000, -25.00000000000000000, 4.000000000000000000 ) ) ;
#70 = APPLICATION_CONTEXT ( 'configuration controlled 3d designs of mechanical parts and assemblies' ) ;
#71 = APPROVAL_STATUS ( 'not_yet_approved' ) ;
#72 = CALENDAR_DATE ( 2017, 19, 5 ) ;
#73 = CARTESIAN_POINT ( 'NONE',  ( 25.00000000000000700, -25.00000000000000000, 4.000000000000000000 ) ) ;
#74 = AXIS2_PLACEMENT_3D ( 'NONE', #106, #67, #31 ) ;
#75 = ADVANCED_FACE ( 'NONE', ( #163 ), #35, .T. ) ;
#76 = DIRECTION ( 'NONE',  ( 1.000000000000000000, 0.0000000000000000000, 0.0000000000000000000 ) ) ;
#77 = DATE_AND_TIME ( #128, #166 ) ;
#78 = PRODUCT_RELATED_PRODUCT_CATEGORY ( 'detail', '', ( #217 ) ) ;
#79 = CALENDAR_DATE ( 2017, 19, 5 ) ;
#80 = ORIENTED_EDGE ( 'NONE', *, *, #66, .T. ) ;
#81 = DATE_AND_TIME ( #72, #223 ) ;
#82 = CC_DESIGN_DATE_AND_TIME_ASSIGNMENT ( #95, #158, ( #22 ) ) ;
#83 = EDGE_LOOP ( 'NONE', ( #84, #230, #134, #161 ) ) ;
#84 = ORIENTED_EDGE ( 'NONE', *, *, #188, .T. ) ;
#85 = PLANE ( 'NONE',  #232 ) ;
#86 = ORIENTED_EDGE ( 'NONE', *, *, #139, .F. ) ;
#87 = APPROVAL_ROLE ( '' ) ;
#88 = DIRECTION ( 'NONE',  ( 0.0000000000000000000, 1.000000000000000000, 0.0000000000000000000 ) ) ;
#89 = APPROVAL_ROLE ( '' ) ;
#90 = DIRECTION ( 'NONE',  ( -0.0000000000000000000, -0.0000000000000000000, -1.000000000000000000 ) ) ;
#91 = LOCAL_TIME ( 10, 52, 32.00000000000000000, #102 ) ;
#92 = DIRECTION ( 'NONE',  ( -1.000000000000000000, -2.081668171172168500E-016, 0.0000000000000000000 ) ) ;
#93 = VECTOR ( 'NONE', #33, 1000.000000000000000 ) ;
#94 = UNCERTAINTY_MEASURE_WITH_UNIT (LENGTH_MEASURE( 1.000000000000000100E-005 ), #14, 'distance_accuracy_value', 'NONE');
#95 = DATE_AND_TIME ( #79, #118 ) ;
#96 = VECTOR ( 'NONE', #141, 1000.000000000000000 ) ;
#97 = EDGE_LOOP ( 'NONE', ( #105, #25, #131, #65 ) ) ;
#98 = EDGE_CURVE ( 'NONE', #145, #113, #234, .T. ) ;
#99 = PERSON_AND_ORGANIZATION ( #197, #142 ) ;
#100 = VERTEX_POINT ( 'NONE', #69 ) ;
#101 =( GEOMETRIC_REPRESENTATION_CONTEXT ( 3 ) GLOBAL_UNCERTAINTY_ASSIGNED_CONTEXT ( ( #94 ) ) GLOBAL_UNIT_ASSIGNED_CONTEXT ( ( #14, #185, #137 ) ) REPRESENTATION_CONTEXT ( 'NONE', 'WORKASPACE' ) );
#102 = COORDINATED_UNIVERSAL_TIME_OFFSET ( 5, 0, .BEHIND. ) ;
#103 = VECTOR ( 'NONE', #90, 1000.000000000000000 ) ;
#104 = DESIGN_CONTEXT ( 'detailed design', #49, 'design' ) ;
#105 = ORIENTED_EDGE ( 'NONE', *, *, #139, .T. ) ;
#106 = CARTESIAN_POINT ( 'NONE',  ( -25.00000000000000000, -25.00000000000000000, 0.0000000000000000000 ) ) ;
#107 = LINE ( 'NONE', #108, #150 ) ;
#108 = CARTESIAN_POINT ( 'NONE',  ( -25.00000000000000400, 25.00000000000000000, 4.000000000000000000 ) ) ;
#109 = CC_DESIGN_APPROVAL ( #21, ( #22 ) ) ;
#110 = CARTESIAN_POINT ( 'NONE',  ( -25.00000000000000000, -25.00000000000000000, 4.000000000000000000 ) ) ;
#111 = CARTESIAN_POINT ( 'NONE',  ( -25.00000000000000400, 25.00000000000000000, 4.000000000000000000 ) ) ;
#112 = VECTOR ( 'NONE', #76, 1000.000000000000000 ) ;
#113 = VERTEX_POINT ( 'NONE', #181 ) ;
#114 = CC_DESIGN_DATE_AND_TIME_ASSIGNMENT ( #81, #156, ( #162 ) ) ;
#115 = CARTESIAN_POINT ( 'NONE',  ( -25.00000000000000400, 25.00000000000000000, 4.000000000000000000 ) ) ;
#116 = ORIENTED_EDGE ( 'NONE', *, *, #188, .F. ) ;
#117 = LINE ( 'NONE', #231, #190 ) ;
#118 = LOCAL_TIME ( 10, 52, 32.00000000000000000, #159 ) ;
#119 = EDGE_CURVE ( 'NONE', #180, #50, #43, .T. ) ;
#120 = PERSON_AND_ORGANIZATION ( #197, #142 ) ;
#121 = ADVANCED_FACE ( 'NONE', ( #193 ), #152, .F. ) ;
#122 = EDGE_CURVE ( 'NONE', #113, #180, #10, .T. ) ;
#123 = DIRECTION ( 'NONE',  ( 1.000000000000000000, 0.0000000000000000000, 0.0000000000000000000 ) ) ;
#124 = DIRECTION ( 'NONE',  ( 1.000000000000000000, 0.0000000000000000000, 0.0000000000000000000 ) ) ;
#125 = DIRECTION ( 'NONE',  ( 1.000000000000000000, 6.938893903907228400E-017, -0.0000000000000000000 ) ) ;
#126 = PERSON_AND_ORGANIZATION_ROLE ( 'creator' ) ;
#127 = CALENDAR_DATE ( 2017, 19, 5 ) ;
#128 = CALENDAR_DATE ( 2017, 19, 5 ) ;
#129 = AXIS2_PLACEMENT_3D ( 'NONE', #228, #226, #124 ) ;
#130 = VECTOR ( 'NONE', #63, 1000.000000000000000 ) ;
#131 = ORIENTED_EDGE ( 'NONE', *, *, #192, .T. ) ;
#132 = LINE ( 'NONE', #59, #36 ) ;
#133 = FACE_OUTER_BOUND ( 'NONE', #207, .T. ) ;
#134 = ORIENTED_EDGE ( 'NONE', *, *, #206, .F. ) ;
#135 = CARTESIAN_POINT ( 'NONE',  ( -25.00000000000000400, 25.00000000000000000, 0.0000000000000000000 ) ) ;
#136 = CARTESIAN_POINT ( 'NONE',  ( -25.00000000000000400, 25.00000000000000000, 0.0000000000000000000 ) ) ;
#137 =( NAMED_UNIT ( * ) SI_UNIT ( $, .STERADIAN. ) SOLID_ANGLE_UNIT ( ) );
#138 = APPLICATION_PROTOCOL_DEFINITION ( 'international standard', 'config_control_design', 1994, #49 ) ;
#139 = EDGE_CURVE ( 'NONE', #24, #100, #107, .T. ) ;
#140 = CARTESIAN_POINT ( 'NONE',  ( 24.99999999999999600, 24.99999999999999600, 4.000000000000000000 ) ) ;
#141 = DIRECTION ( 'NONE',  ( -1.000000000000000000, 6.938893903907228400E-017, -0.0000000000000000000 ) ) ;
#142 = ORGANIZATION ( 'UNSPECIFIED', 'UNSPECIFIED', '' ) ;
#143 = DIRECTION ( 'NONE',  ( -6.938893903907228400E-017, -1.000000000000000000, 0.0000000000000000000 ) ) ;
#144 = EDGE_LOOP ( 'NONE', ( #9, #60, #178, #80 ) ) ;
#145 = VERTEX_POINT ( 'NONE', #13 ) ;
#146 = LINE ( 'NONE', #140, #103 ) ;
#147 = DIRECTION ( 'NONE',  ( 2.081668171172168500E-016, -1.000000000000000000, 0.0000000000000000000 ) ) ;
#148 = FACE_OUTER_BOUND ( 'NONE', #176, .T. ) ;
#149 = ADVANCED_FACE ( 'NONE', ( #148 ), #85, .F. ) ;
#150 = VECTOR ( 'NONE', #64, 1000.000000000000000 ) ;
#151 = CARTESIAN_POINT ( 'NONE',  ( -25.00000000000000400, 25.00000000000000000, 4.000000000000000000 ) ) ;
#152 = PLANE ( 'NONE',  #74 ) ;
#153 = VECTOR ( 'NONE', #171, 1000.000000000000000 ) ;
#154 = APPLICATION_PROTOCOL_DEFINITION ( 'international standard', 'config_control_design', 1994, #70 ) ;
#155 = DIRECTION ( 'NONE',  ( 1.000000000000000000, 0.0000000000000000000, 0.0000000000000000000 ) ) ;
#156 = DATE_TIME_ROLE ( 'creation_date' ) ;
#157 = CARTESIAN_POINT ( 'NONE',  ( -25.00000000000000000, -25.00000000000000000, 4.000000000000000000 ) ) ;
#158 = DATE_TIME_ROLE ( 'classification_date' ) ;
#159 = COORDINATED_UNIVERSAL_TIME_OFFSET ( 5, 0, .BEHIND. ) ;
#160 = DIRECTION ( 'NONE',  ( 0.0000000000000000000, -0.0000000000000000000, 1.000000000000000000 ) ) ;
#161 = ORIENTED_EDGE ( 'NONE', *, *, #45, .T. ) ;
#162 = PRODUCT_DEFINITION ( 'UNKNOWN', '', #221, #104 ) ;
#163 = FACE_OUTER_BOUND ( 'NONE', #97, .T. ) ;
#164 = APPROVAL_PERSON_ORGANIZATION ( #169, #179, #87 ) ;
#165 = DIRECTION ( 'NONE',  ( -2.081668171172168500E-016, 1.000000000000000000, -0.0000000000000000000 ) ) ;
#166 = LOCAL_TIME ( 10, 52, 32.00000000000000000, #68 ) ;
#167 = DIRECTION ( 'NONE',  ( -1.000000000000000000, 6.938893903907228400E-017, -0.0000000000000000000 ) ) ;
#168 = DIRECTION ( 'NONE',  ( -0.0000000000000000000, 0.0000000000000000000, 1.000000000000000000 ) ) ;
#169 = PERSON_AND_ORGANIZATION ( #197, #142 ) ;
#170 = PERSON_AND_ORGANIZATION_ROLE ( 'creator' ) ;
#171 = DIRECTION ( 'NONE',  ( -0.0000000000000000000, -0.0000000000000000000, -1.000000000000000000 ) ) ;
#172 = VECTOR ( 'NONE', #167, 1000.000000000000000 ) ;
#173 = DIRECTION ( 'NONE',  ( 1.000000000000000000, -6.938893903907228400E-017, 0.0000000000000000000 ) ) ;
#174 = AXIS2_PLACEMENT_3D ( 'NONE', #191, #92, #147 ) ;
#175 = ORIENTED_EDGE ( 'NONE', *, *, #30, .F. ) ;
#176 = EDGE_LOOP ( 'NONE', ( #222, #58, #86, #177 ) ) ;
#177 = ORIENTED_EDGE ( 'NONE', *, *, #30, .T. ) ;
#178 = ORIENTED_EDGE ( 'NONE', *, *, #192, .F. ) ;
#179 = APPROVAL ( #71, 'UNSPECIFIED' ) ;
#180 = VERTEX_POINT ( 'NONE', #136 ) ;
#181 = CARTESIAN_POINT ( 'NONE',  ( 24.99999999999999600, 24.99999999999999600, 0.0000000000000000000 ) ) ;
#182 = PERSON_AND_ORGANIZATION ( #197, #142 ) ;
#183 = DIRECTION ( 'NONE',  ( -2.081668171172168500E-016, 1.000000000000000000, -0.0000000000000000000 ) ) ;
#184 = ORIENTED_EDGE ( 'NONE', *, *, #122, .F. ) ;
#185 =( NAMED_UNIT ( * ) PLANE_ANGLE_UNIT ( ) SI_UNIT ( $, .RADIAN. ) );
#186 = APPROVAL_STATUS ( 'not_yet_approved' ) ;
#187 = CARTESIAN_POINT ( 'NONE',  ( -25.00000000000000400, 25.00000000000000000, 4.000000000000000000 ) ) ;
#188 = EDGE_CURVE ( 'NONE', #50, #145, #202, .T. ) ;
#189 = APPROVAL_STATUS ( 'not_yet_approved' ) ;
#190 = VECTOR ( 'NONE', #183, 1000.000000000000000 ) ;
#191 = CARTESIAN_POINT ( 'NONE',  ( 24.99999999999999600, 24.99999999999999600, 4.000000000000000000 ) ) ;
#192 = EDGE_CURVE ( 'NONE', #38, #37, #117, .T. ) ;
#193 = FACE_OUTER_BOUND ( 'NONE', #216, .T. ) ;
#194 = PRODUCT_DEFINITION_SHAPE ( 'NONE', 'NONE',  #162 ) ;
#195 = ORIENTED_EDGE ( 'NONE', *, *, #98, .F. ) ;
#196 = AXIS2_PLACEMENT_3D ( 'NONE', #110, #168, #123 ) ;
#197 = PERSON ( 'UNSPECIFIED', 'UNSPECIFIED', 'UNSPECIFIED', ('UNSPECIFIED'), ('UNSPECIFIED'), ('UNSPECIFIED') ) ;
#198 = PERSON_AND_ORGANIZATION ( #197, #142 ) ;
#199 = CARTESIAN_POINT ( 'NONE',  ( -25.00000000000000000, -25.00000000000000000, 0.0000000000000000000 ) ) ;
#200 = APPROVAL_DATE_TIME ( #77, #179 ) ;
#201 = CC_DESIGN_PERSON_AND_ORGANIZATION_ASSIGNMENT ( #182, #16, ( #217 ) ) ;
#202 = LINE ( 'NONE', #236, #112 ) ;
#203 = FACE_OUTER_BOUND ( 'NONE', #83, .T. ) ;
#204 = CARTESIAN_POINT ( 'NONE',  ( -25.00000000000000400, 25.00000000000000000, 4.000000000000000000 ) ) ;
#205 = APPROVAL_DATE_TIME ( #47, #3 ) ;
#206 = EDGE_CURVE ( 'NONE', #100, #38, #215, .T. ) ;
#207 = EDGE_LOOP ( 'NONE', ( #39, #175, #4, #62 ) ) ;
#208 = CARTESIAN_POINT ( 'NONE',  ( -25.00000000000000400, 25.00000000000000000, 0.0000000000000000000 ) ) ;
#209 = PERSON_AND_ORGANIZATION ( #197, #142 ) ;
#210 = VECTOR ( 'NONE', #165, 1000.000000000000000 ) ;
#211 = CC_DESIGN_PERSON_AND_ORGANIZATION_ASSIGNMENT ( #28, #126, ( #221 ) ) ;
#212 = LINE ( 'NONE', #7, #130 ) ;
#213 = ADVANCED_BREP_SHAPE_REPRESENTATION ( 'Web Model 84492_48199', ( #218, #129 ), #101 ) ;
#214 = CC_DESIGN_APPROVAL ( #179, ( #221 ) ) ;
#215 = LINE ( 'NONE', #15, #56 ) ;
#216 = EDGE_LOOP ( 'NONE', ( #2, #184, #195, #116 ) ) ;
#217 = PRODUCT ( 'Web Model 84492_48199', 'Web Model 84492_48199', '', ( #48 ) ) ;
#218 = MANIFOLD_SOLID_BREP ( 'Extrude1', #51 ) ;
#219 = APPROVAL_PERSON_ORGANIZATION ( #198, #21, #89 ) ;
#220 = LINE ( 'NONE', #115, #153 ) ;
#221 = PRODUCT_DEFINITION_FORMATION_WITH_SPECIFIED_SOURCE ( 'ANY', '', #217, .NOT_KNOWN. ) ;
#222 = ORIENTED_EDGE ( 'NONE', *, *, #119, .T. ) ;
#223 = LOCAL_TIME ( 10, 52, 32.00000000000000000, #23 ) ;
#224 = CC_DESIGN_PERSON_AND_ORGANIZATION_ASSIGNMENT ( #209, #46, ( #22 ) ) ;
#225 = DIRECTION ( 'NONE',  ( -0.0000000000000000000, -0.0000000000000000000, -1.000000000000000000 ) ) ;
#226 = DIRECTION ( 'NONE',  ( 0.0000000000000000000, 0.0000000000000000000, 1.000000000000000000 ) ) ;
#227 = DIRECTION ( 'NONE',  ( -6.938893903907228400E-017, 1.000000000000000000, 0.0000000000000000000 ) ) ;
#228 = CARTESIAN_POINT ( 'NONE',  ( 0.0000000000000000000, 0.0000000000000000000, 0.0000000000000000000 ) ) ;
#229 = CARTESIAN_POINT ( 'NONE',  ( 24.99999999999999600, 24.99999999999999600, 4.000000000000000000 ) ) ;
#230 = ORIENTED_EDGE ( 'NONE', *, *, #66, .F. ) ;
#231 = CARTESIAN_POINT ( 'NONE',  ( 24.99999999999999600, 24.99999999999999600, 4.000000000000000000 ) ) ;
#232 = AXIS2_PLACEMENT_3D ( 'NONE', #204, #125, #227 ) ;
#233 = PLANE ( 'NONE',  #57 ) ;
#234 = LINE ( 'NONE', #11, #210 ) ;
#235 = APPROVAL_DATE_TIME ( #12, #21 ) ;
#236 = CARTESIAN_POINT ( 'NONE',  ( -25.00000000000000000, -25.00000000000000000, 0.0000000000000000000 ) ) ;
#237 = LINE ( 'NONE', #151, #96 ) ;
ENDSEC;
END-ISO-10303-21;
