ISO-10303-21;
HEADER;
FILE_DESCRIPTION (( 'STEP AP203' ),
    '1' );
FILE_NAME ('Web Model 47777_48571.step',
    '2017-04-26T16:34:23',
    ( '' ),
    ( '' ),
    'SwSTEP 2.0',
    'SolidWorks 2016',
    '' );
FILE_SCHEMA (( 'CONFIG_CONTROL_DESIGN' ));
ENDSEC;

DATA;
#1 = LINE ( 'NONE', #39, #243 ) ;
#2 = CALENDAR_DATE ( 2017, 26, 4 ) ;
#3 = FACE_OUTER_BOUND ( 'NONE', #270, .T. ) ;
#4 = VERTEX_POINT ( 'NONE', #93 ) ;
#5 = DIRECTION ( 'NONE',  ( 0.7071067811865474600, -0.7071067811865474600, 0.0000000000000000000 ) ) ;
#6 = ORIENTED_EDGE ( 'NONE', *, *, #17, .F. ) ;
#7 = CARTESIAN_POINT ( 'NONE',  ( 0.0000000000000000000, 0.0000000000000000000, 5.000000000000000000 ) ) ;
#8 = AXIS2_PLACEMENT_3D ( 'NONE', #7, #297, #198 ) ;
#9 = DATE_AND_TIME ( #154, #89 ) ;
#10 = LINE ( 'NONE', #293, #141 ) ;
#11 = VECTOR ( 'NONE', #248, 1000.000000000000000 ) ;
#12 = CARTESIAN_POINT ( 'NONE',  ( -5.000000000000000900, -5.000000000000000900, 5.000000000000000000 ) ) ;
#13 = VECTOR ( 'NONE', #121, 1000.000000000000100 ) ;
#14 = CARTESIAN_POINT ( 'NONE',  ( 0.0000000000000000000, -5.000000000000000900, -5.000000000000000000 ) ) ;
#15 = DIRECTION ( 'NONE',  ( 1.000000000000000000, 0.0000000000000000000, 0.0000000000000000000 ) ) ;
#16 = DIRECTION ( 'NONE',  ( 0.0000000000000000000, 1.000000000000000000, -0.0000000000000000000 ) ) ;
#17 = EDGE_CURVE ( 'NONE', #4, #236, #316, .T. ) ;
#18 = ORIENTED_EDGE ( 'NONE', *, *, #130, .T. ) ;
#19 = DIRECTION ( 'NONE',  ( 0.7071067811865475700, 0.7071067811865475700, -0.0000000000000000000 ) ) ;
#20 = PLANE ( 'NONE',  #249 ) ;
#21 = ORIENTED_EDGE ( 'NONE', *, *, #220, .T. ) ;
#22 = AXIS2_PLACEMENT_3D ( 'NONE', #77, #87, #57 ) ;
#23 = DIRECTION ( 'NONE',  ( 0.0000000000000000000, 1.000000000000000000, 0.0000000000000000000 ) ) ;
#24 = ORIENTED_EDGE ( 'NONE', *, *, #73, .F. ) ;
#25 = CARTESIAN_POINT ( 'NONE',  ( -5.000000000000000900, 0.0000000000000000000, -5.000000000000000000 ) ) ;
#26 = ORIENTED_EDGE ( 'NONE', *, *, #56, .T. ) ;
#27 = CALENDAR_DATE ( 2017, 26, 4 ) ;
#28 = VECTOR ( 'NONE', #129, 1000.000000000000000 ) ;
#29 = DIRECTION ( 'NONE',  ( 0.0000000000000000000, 1.000000000000000000, 0.0000000000000000000 ) ) ;
#30 = APPROVAL_ROLE ( '' ) ;
#31 = CARTESIAN_POINT ( 'NONE',  ( 0.0000000000000000000, -5.000000000000000900, 5.000000000000000000 ) ) ;
#32 = LINE ( 'NONE', #62, #148 ) ;
#33 = EDGE_LOOP ( 'NONE', ( #192, #206, #214 ) ) ;
#34 = VECTOR ( 'NONE', #124, 1000.000000000000000 ) ;
#35 = EDGE_CURVE ( 'NONE', #4, #147, #219, .T. ) ;
#36 = ADVANCED_BREP_SHAPE_REPRESENTATION ( 'Web Model 47777_48571', ( #64, #186, #22 ), #266 ) ;
#37 = PERSON_AND_ORGANIZATION ( #195, #160 ) ;
#38 = APPROVAL_PERSON_ORGANIZATION ( #193, #156, #267 ) ;
#39 = CARTESIAN_POINT ( 'NONE',  ( -9.199760500100243800E-016, -9.199760500100243800E-016, -5.000000000000000000 ) ) ;
#40 = CC_DESIGN_PERSON_AND_ORGANIZATION_ASSIGNMENT ( #181, #253, ( #242 ) ) ;
#41 = ADVANCED_FACE ( 'NONE', ( #246 ), #279, .F. ) ;
#42 = ADVANCED_FACE ( 'NONE', ( #177 ), #225, .T. ) ;
#43 = APPLICATION_CONTEXT ( 'configuration controlled 3d designs of mechanical parts and assemblies' ) ;
#44 = APPROVAL_DATE_TIME ( #313, #156 ) ;
#45 = VECTOR ( 'NONE', #16, 1000.000000000000000 ) ;
#46 = LOCAL_TIME ( 12, 34, 23.00000000000000000, #102 ) ;
#47 = DIRECTION ( 'NONE',  ( -0.0000000000000000000, 0.0000000000000000000, 1.000000000000000000 ) ) ;
#48 =( NAMED_UNIT ( * ) SI_UNIT ( $, .STERADIAN. ) SOLID_ANGLE_UNIT ( ) );
#49 = AXIS2_PLACEMENT_3D ( 'NONE', #120, #47, #116 ) ;
#50 = VECTOR ( 'NONE', #80, 1000.000000000000000 ) ;
#51 = EDGE_LOOP ( 'NONE', ( #79, #131, #92, #285 ) ) ;
#52 = CALENDAR_DATE ( 2017, 26, 4 ) ;
#53 = ORIENTED_EDGE ( 'NONE', *, *, #233, .T. ) ;
#54 = CARTESIAN_POINT ( 'NONE',  ( 0.0000000000000000000, -5.000000000000000900, 5.000000000000000000 ) ) ;
#55 = PLANE ( 'NONE',  #109 ) ;
#56 = EDGE_CURVE ( 'NONE', #301, #166, #232, .T. ) ;
#57 = DIRECTION ( 'NONE',  ( 1.000000000000000000, 0.0000000000000000000, 0.0000000000000000000 ) ) ;
#58 = PRODUCT_DEFINITION ( 'UNKNOWN', '', #134, #65 ) ;
#59 = DIRECTION ( 'NONE',  ( 0.7071067811865474600, -0.7071067811865474600, 0.0000000000000000000 ) ) ;
#60 = CARTESIAN_POINT ( 'NONE',  ( 0.0000000000000000000, 0.0000000000000000000, -5.000000000000000000 ) ) ;
#61 = CARTESIAN_POINT ( 'NONE',  ( 0.0000000000000000000, 4.999999999999999100, 5.000000000000000000 ) ) ;
#62 = CARTESIAN_POINT ( 'NONE',  ( -5.000000000000000900, 0.0000000000000000000, 5.000000000000000000 ) ) ;
#63 = CARTESIAN_POINT ( 'NONE',  ( -0.0000000000000000000, 4.999999999999999100, -5.000000000000000000 ) ) ;
#64 = MANIFOLD_SOLID_BREP ( 'Boss-Extrude2', #68 ) ;
#65 = DESIGN_CONTEXT ( 'detailed design', #78, 'design' ) ;
#66 = CARTESIAN_POINT ( 'NONE',  ( 4.999999999999999100, 4.999999999999999100, 5.000000000000000000 ) ) ;
#67 = CARTESIAN_POINT ( 'NONE',  ( -5.000000000000000900, 4.999999999999999100, 5.000000000000000000 ) ) ;
#68 = CLOSED_SHELL ( 'NONE', ( #257, #315, #265, #42, #132 ) ) ;
#69 = VERTEX_POINT ( 'NONE', #144 ) ;
#70 = CARTESIAN_POINT ( 'NONE',  ( 4.999999999999999100, -5.000000000000000900, 5.000000000000000000 ) ) ;
#71 = CARTESIAN_POINT ( 'NONE',  ( -9.199760500100243800E-016, -9.199760500100243800E-016, 5.000000000000000000 ) ) ;
#72 = EDGE_LOOP ( 'NONE', ( #241, #21, #252 ) ) ;
#73 = EDGE_CURVE ( 'NONE', #69, #319, #113, .T. ) ;
#74 = CARTESIAN_POINT ( 'NONE',  ( 4.999999999999999100, -5.000000000000000900, 5.000000000000000000 ) ) ;
#75 = DIRECTION ( 'NONE',  ( 0.7071067811865474600, -0.7071067811865474600, 0.0000000000000000000 ) ) ;
#76 = APPROVAL ( #187, 'UNSPECIFIED' ) ;
#77 = CARTESIAN_POINT ( 'NONE',  ( 0.0000000000000000000, 0.0000000000000000000, 0.0000000000000000000 ) ) ;
#78 = APPLICATION_CONTEXT ( 'configuration controlled 3d designs of mechanical parts and assemblies' ) ;
#79 = ORIENTED_EDGE ( 'NONE', *, *, #35, .F. ) ;
#80 = DIRECTION ( 'NONE',  ( 0.0000000000000000000, 1.000000000000000000, -0.0000000000000000000 ) ) ;
#81 = ORIENTED_EDGE ( 'NONE', *, *, #184, .T. ) ;
#82 = AXIS2_PLACEMENT_3D ( 'NONE', #314, #128, #175 ) ;
#83 = PLANE ( 'NONE',  #82 ) ;
#84 = CARTESIAN_POINT ( 'NONE',  ( 4.999999999999999100, 0.0000000000000000000, 5.000000000000000000 ) ) ;
#85 = VECTOR ( 'NONE', #97, 1000.000000000000000 ) ;
#86 = LOCAL_TIME ( 12, 34, 23.00000000000000000, #180 ) ;
#87 = DIRECTION ( 'NONE',  ( 0.0000000000000000000, 0.0000000000000000000, 1.000000000000000000 ) ) ;
#88 = DIRECTION ( 'NONE',  ( -0.7071067811865474600, 0.7071067811865474600, 0.0000000000000000000 ) ) ;
#89 = LOCAL_TIME ( 12, 34, 23.00000000000000000, #216 ) ;
#90 = EDGE_CURVE ( 'NONE', #210, #236, #230, .T. ) ;
#91 = PRODUCT_DEFINITION_SHAPE ( 'NONE', 'NONE',  #58 ) ;
#92 = ORIENTED_EDGE ( 'NONE', *, *, #167, .T. ) ;
#93 = CARTESIAN_POINT ( 'NONE',  ( -5.000000000000000900, -5.000000000000000900, -5.000000000000000000 ) ) ;
#94 = CARTESIAN_POINT ( 'NONE',  ( -5.000000000000000900, 4.999999999999999100, 5.000000000000000000 ) ) ;
#95 = CC_DESIGN_APPROVAL ( #76, ( #58 ) ) ;
#96 = FACE_OUTER_BOUND ( 'NONE', #51, .T. ) ;
#97 = DIRECTION ( 'NONE',  ( -0.0000000000000000000, -0.0000000000000000000, -1.000000000000000000 ) ) ;
#98 = CARTESIAN_POINT ( 'NONE',  ( 4.999999999999999100, -5.000000000000000900, -5.000000000000000000 ) ) ;
#99 = ORIENTED_EDGE ( 'NONE', *, *, #103, .T. ) ;
#100 = CARTESIAN_POINT ( 'NONE',  ( -5.000000000000000900, 4.999999999999999100, -5.000000000000000000 ) ) ;
#101 = PERSON_AND_ORGANIZATION_ROLE ( 'creator' ) ;
#102 = COORDINATED_UNIVERSAL_TIME_OFFSET ( 5, 0, .BEHIND. ) ;
#103 = EDGE_CURVE ( 'NONE', #106, #210, #274, .T. ) ;
#104 = DIRECTION ( 'NONE',  ( 0.0000000000000000000, -0.0000000000000000000, 1.000000000000000000 ) ) ;
#105 = CC_DESIGN_PERSON_AND_ORGANIZATION_ASSIGNMENT ( #284, #217, ( #58 ) ) ;
#106 = VERTEX_POINT ( 'NONE', #94 ) ;
#107 = FACE_OUTER_BOUND ( 'NONE', #33, .T. ) ;
#108 = DATE_AND_TIME ( #211, #209 ) ;
#109 = AXIS2_PLACEMENT_3D ( 'NONE', #114, #197, #123 ) ;
#110 = CARTESIAN_POINT ( 'NONE',  ( 4.999999999999999100, -5.000000000000000900, 5.000000000000000000 ) ) ;
#111 = VECTOR ( 'NONE', #311, 1000.000000000000000 ) ;
#112 = SHAPE_DEFINITION_REPRESENTATION ( #91, #36 ) ;
#113 = LINE ( 'NONE', #71, #173 ) ;
#114 = CARTESIAN_POINT ( 'NONE',  ( -5.000000000000000900, 0.0000000000000000000, 5.000000000000000000 ) ) ;
#115 = EDGE_LOOP ( 'NONE', ( #81, #125, #24, #196 ) ) ;
#116 = DIRECTION ( 'NONE',  ( 1.000000000000000000, 0.0000000000000000000, 0.0000000000000000000 ) ) ;
#117 = EDGE_CURVE ( 'NONE', #69, #317, #174, .T. ) ;
#118 = DIRECTION ( 'NONE',  ( 1.000000000000000000, 0.0000000000000000000, 0.0000000000000000000 ) ) ;
#119 = CC_DESIGN_DATE_AND_TIME_ASSIGNMENT ( #9, #227, ( #58 ) ) ;
#120 = CARTESIAN_POINT ( 'NONE',  ( 0.0000000000000000000, 0.0000000000000000000, -5.000000000000000000 ) ) ;
#121 = DIRECTION ( 'NONE',  ( 0.7071067811865474600, -0.7071067811865474600, 0.0000000000000000000 ) ) ;
#122 = DIRECTION ( 'NONE',  ( 0.0000000000000000000, -0.0000000000000000000, 1.000000000000000000 ) ) ;
#123 = DIRECTION ( 'NONE',  ( 0.0000000000000000000, 0.0000000000000000000, 1.000000000000000000 ) ) ;
#124 = DIRECTION ( 'NONE',  ( 0.0000000000000000000, 1.000000000000000000, -0.0000000000000000000 ) ) ;
#125 = ORIENTED_EDGE ( 'NONE', *, *, #254, .F. ) ;
#126 = PLANE ( 'NONE',  #212 ) ;
#127 = APPROVAL_PERSON_ORGANIZATION ( #149, #76, #244 ) ;
#128 = DIRECTION ( 'NONE',  ( -0.0000000000000000000, 0.0000000000000000000, 1.000000000000000000 ) ) ;
#129 = DIRECTION ( 'NONE',  ( -0.0000000000000000000, -0.0000000000000000000, -1.000000000000000000 ) ) ;
#130 = EDGE_CURVE ( 'NONE', #147, #236, #1, .T. ) ;
#131 = ORIENTED_EDGE ( 'NONE', *, *, #308, .F. ) ;
#132 = ADVANCED_FACE ( 'NONE', ( #3 ), #171, .F. ) ;
#133 = CARTESIAN_POINT ( 'NONE',  ( 4.999999999999999100, 4.999999999999999100, -5.000000000000000000 ) ) ;
#134 = PRODUCT_DEFINITION_FORMATION_WITH_SPECIFIED_SOURCE ( 'ANY', '', #242, .NOT_KNOWN. ) ;
#135 = FACE_OUTER_BOUND ( 'NONE', #221, .T. ) ;
#136 = APPROVAL_DATE_TIME ( #251, #76 ) ;
#137 = DIRECTION ( 'NONE',  ( -0.0000000000000000000, -0.0000000000000000000, -1.000000000000000000 ) ) ;
#138 = ORIENTED_EDGE ( 'NONE', *, *, #295, .F. ) ;
#139 = FACE_OUTER_BOUND ( 'NONE', #115, .T. ) ;
#140 = VERTEX_POINT ( 'NONE', #275 ) ;
#141 = VECTOR ( 'NONE', #5, 1000.000000000000100 ) ;
#142 = DIRECTION ( 'NONE',  ( -0.0000000000000000000, -0.0000000000000000000, -1.000000000000000000 ) ) ;
#143 = AXIS2_PLACEMENT_3D ( 'NONE', #289, #161, #88 ) ;
#144 = CARTESIAN_POINT ( 'NONE',  ( -5.000000000000000900, 4.999999999999999100, 5.000000000000000000 ) ) ;
#145 = DIRECTION ( 'NONE',  ( 0.0000000000000000000, 0.0000000000000000000, 1.000000000000000000 ) ) ;
#146 = PERSON_AND_ORGANIZATION ( #195, #160 ) ;
#147 = VERTEX_POINT ( 'NONE', #100 ) ;
#148 = VECTOR ( 'NONE', #312, 1000.000000000000000 ) ;
#149 = PERSON_AND_ORGANIZATION ( #195, #160 ) ;
#150 = EDGE_CURVE ( 'NONE', #140, #210, #280, .T. ) ;
#151 = FACE_OUTER_BOUND ( 'NONE', #235, .T. ) ;
#152 = ORIENTED_EDGE ( 'NONE', *, *, #90, .T. ) ;
#153 = CARTESIAN_POINT ( 'NONE',  ( -9.199760500100243800E-016, -9.199760500100243800E-016, 5.000000000000000000 ) ) ;
#154 = CALENDAR_DATE ( 2017, 26, 4 ) ;
#155 = CLOSED_SHELL ( 'NONE', ( #283, #41, #268, #234, #305 ) ) ;
#156 = APPROVAL ( #199, 'UNSPECIFIED' ) ;
#157 = CARTESIAN_POINT ( 'NONE',  ( 4.999999999999999100, 4.999999999999999100, 5.000000000000000000 ) ) ;
#158 = DIRECTION ( 'NONE',  ( 1.000000000000000000, 0.0000000000000000000, 0.0000000000000000000 ) ) ;
#159 = ORIENTED_EDGE ( 'NONE', *, *, #17, .T. ) ;
#160 = ORGANIZATION ( 'UNSPECIFIED', 'UNSPECIFIED', '' ) ;
#161 = DIRECTION ( 'NONE',  ( 0.7071067811865475700, 0.7071067811865475700, -0.0000000000000000000 ) ) ;
#162 = CARTESIAN_POINT ( 'NONE',  ( 4.999999999999999100, 0.0000000000000000000, 5.000000000000000000 ) ) ;
#163 = FACE_OUTER_BOUND ( 'NONE', #72, .T. ) ;
#164 = ORIENTED_EDGE ( 'NONE', *, *, #308, .T. ) ;
#165 = LINE ( 'NONE', #66, #288 ) ;
#166 = VERTEX_POINT ( 'NONE', #133 ) ;
#167 = EDGE_CURVE ( 'NONE', #140, #106, #32, .T. ) ;
#168 = PLANE ( 'NONE',  #178 ) ;
#169 = CC_DESIGN_APPROVAL ( #156, ( #134 ) ) ;
#170 = CARTESIAN_POINT ( 'NONE',  ( 4.999999999999999100, 0.0000000000000000000, -5.000000000000000000 ) ) ;
#171 = PLANE ( 'NONE',  #49 ) ;
#172 = ORIENTED_EDGE ( 'NONE', *, *, #321, .F. ) ;
#173 = VECTOR ( 'NONE', #59, 1000.000000000000100 ) ;
#174 = LINE ( 'NONE', #299, #11 ) ;
#175 = DIRECTION ( 'NONE',  ( 1.000000000000000000, 0.0000000000000000000, 0.0000000000000000000 ) ) ;
#176 = PERSON_AND_ORGANIZATION ( #195, #160 ) ;
#177 = FACE_OUTER_BOUND ( 'NONE', #237, .T. ) ;
#178 = AXIS2_PLACEMENT_3D ( 'NONE', #201, #23, #104 ) ;
#179 = COORDINATED_UNIVERSAL_TIME_OFFSET ( 5, 0, .BEHIND. ) ;
#180 = COORDINATED_UNIVERSAL_TIME_OFFSET ( 5, 0, .BEHIND. ) ;
#181 = PERSON_AND_ORGANIZATION ( #195, #160 ) ;
#182 = VECTOR ( 'NONE', #137, 1000.000000000000000 ) ;
#183 = DIRECTION ( 'NONE',  ( 1.000000000000000000, 0.0000000000000000000, 0.0000000000000000000 ) ) ;
#184 = EDGE_CURVE ( 'NONE', #317, #301, #10, .T. ) ;
#185 = SECURITY_CLASSIFICATION_LEVEL ( 'unclassified' ) ;
#186 = MANIFOLD_SOLID_BREP ( 'Boss-Extrude3', #155 ) ;
#187 = APPROVAL_STATUS ( 'not_yet_approved' ) ;
#188 = CC_DESIGN_PERSON_AND_ORGANIZATION_ASSIGNMENT ( #176, #101, ( #134 ) ) ;
#189 = APPLICATION_PROTOCOL_DEFINITION ( 'international standard', 'config_control_design', 1994, #43 ) ;
#190 = PLANE ( 'NONE',  #143 ) ;
#191 = ORIENTED_EDGE ( 'NONE', *, *, #321, .T. ) ;
#192 = ORIENTED_EDGE ( 'NONE', *, *, #73, .T. ) ;
#193 = PERSON_AND_ORGANIZATION ( #195, #160 ) ;
#194 = DATE_AND_TIME ( #27, #46 ) ;
#195 = PERSON ( 'UNSPECIFIED', 'UNSPECIFIED', 'UNSPECIFIED', ('UNSPECIFIED'), ('UNSPECIFIED'), ('UNSPECIFIED') ) ;
#196 = ORIENTED_EDGE ( 'NONE', *, *, #117, .T. ) ;
#197 = DIRECTION ( 'NONE',  ( -1.000000000000000000, 0.0000000000000000000, 0.0000000000000000000 ) ) ;
#198 = DIRECTION ( 'NONE',  ( 1.000000000000000000, 0.0000000000000000000, 0.0000000000000000000 ) ) ;
#199 = APPROVAL_STATUS ( 'not_yet_approved' ) ;
#200 = ORIENTED_EDGE ( 'NONE', *, *, #150, .F. ) ;
#201 = CARTESIAN_POINT ( 'NONE',  ( 0.0000000000000000000, 4.999999999999999100, 5.000000000000000000 ) ) ;
#202 = EDGE_CURVE ( 'NONE', #319, #229, #231, .T. ) ;
#203 = VECTOR ( 'NONE', #15, 1000.000000000000000 ) ;
#204 = CARTESIAN_POINT ( 'NONE',  ( 4.999999999999999100, -5.000000000000000900, -5.000000000000000000 ) ) ;
#205 = CC_DESIGN_PERSON_AND_ORGANIZATION_ASSIGNMENT ( #146, #208, ( #134 ) ) ;
#206 = ORIENTED_EDGE ( 'NONE', *, *, #202, .T. ) ;
#207 = ORIENTED_EDGE ( 'NONE', *, *, #90, .F. ) ;
#208 = PERSON_AND_ORGANIZATION_ROLE ( 'design_supplier' ) ;
#209 = LOCAL_TIME ( 12, 34, 23.00000000000000000, #291 ) ;
#210 = VERTEX_POINT ( 'NONE', #74 ) ;
#211 = CALENDAR_DATE ( 2017, 26, 4 ) ;
#212 = AXIS2_PLACEMENT_3D ( 'NONE', #240, #19, #215 ) ;
#213 = FACE_OUTER_BOUND ( 'NONE', #226, .T. ) ;
#214 = ORIENTED_EDGE ( 'NONE', *, *, #233, .F. ) ;
#215 = DIRECTION ( 'NONE',  ( -0.7071067811865474600, 0.7071067811865474600, 0.0000000000000000000 ) ) ;
#216 = COORDINATED_UNIVERSAL_TIME_OFFSET ( 5, 0, .BEHIND. ) ;
#217 = PERSON_AND_ORGANIZATION_ROLE ( 'creator' ) ;
#218 = PLANE ( 'NONE',  #282 ) ;
#219 = LINE ( 'NONE', #25, #45 ) ;
#220 = EDGE_CURVE ( 'NONE', #317, #166, #263, .T. ) ;
#221 = EDGE_LOOP ( 'NONE', ( #310, #138, #99, #152 ) ) ;
#222 = SECURITY_CLASSIFICATION ( '', '', #185 ) ;
#223 = VECTOR ( 'NONE', #142, 1000.000000000000000 ) ;
#224 = PERSON_AND_ORGANIZATION ( #195, #160 ) ;
#225 = PLANE ( 'NONE',  #8 ) ;
#226 = EDGE_LOOP ( 'NONE', ( #159, #207, #200, #164 ) ) ;
#227 = DATE_TIME_ROLE ( 'creation_date' ) ;
#228 = APPROVAL_STATUS ( 'not_yet_approved' ) ;
#229 = VERTEX_POINT ( 'NONE', #157 ) ;
#230 = LINE ( 'NONE', #70, #223 ) ;
#231 = LINE ( 'NONE', #84, #50 ) ;
#232 = LINE ( 'NONE', #170, #34 ) ;
#233 = EDGE_CURVE ( 'NONE', #69, #229, #290, .T. ) ;
#234 = ADVANCED_FACE ( 'NONE', ( #107 ), #83, .T. ) ;
#235 = EDGE_LOOP ( 'NONE', ( #256, #302, #53, #191 ) ) ;
#236 = VERTEX_POINT ( 'NONE', #98 ) ;
#237 = EDGE_LOOP ( 'NONE', ( #318, #309, #245 ) ) ;
#238 = CARTESIAN_POINT ( 'NONE',  ( -5.000000000000000900, 4.999999999999999100, -5.000000000000000000 ) ) ;
#239 = CC_DESIGN_PERSON_AND_ORGANIZATION_ASSIGNMENT ( #224, #306, ( #222 ) ) ;
#240 = CARTESIAN_POINT ( 'NONE',  ( -9.199760500100243800E-016, -9.199760500100243800E-016, 5.000000000000000000 ) ) ;
#241 = ORIENTED_EDGE ( 'NONE', *, *, #184, .F. ) ;
#242 = PRODUCT ( 'Web Model 47777_48571', 'Web Model 47777_48571', '', ( #250 ) ) ;
#243 = VECTOR ( 'NONE', #75, 1000.000000000000100 ) ;
#244 = APPROVAL_ROLE ( '' ) ;
#245 = ORIENTED_EDGE ( 'NONE', *, *, #103, .F. ) ;
#246 = FACE_OUTER_BOUND ( 'NONE', #264, .T. ) ;
#247 = LINE ( 'NONE', #12, #182 ) ;
#248 = DIRECTION ( 'NONE',  ( -0.0000000000000000000, -0.0000000000000000000, -1.000000000000000000 ) ) ;
#249 = AXIS2_PLACEMENT_3D ( 'NONE', #60, #298, #118 ) ;
#250 = MECHANICAL_CONTEXT ( 'NONE', #43, 'mechanical' ) ;
#251 = DATE_AND_TIME ( #2, #259 ) ;
#252 = ORIENTED_EDGE ( 'NONE', *, *, #56, .F. ) ;
#253 = PERSON_AND_ORGANIZATION_ROLE ( 'design_owner' ) ;
#254 = EDGE_CURVE ( 'NONE', #319, #301, #262, .T. ) ;
#255 =( NAMED_UNIT ( * ) PLANE_ANGLE_UNIT ( ) SI_UNIT ( $, .RADIAN. ) );
#256 = ORIENTED_EDGE ( 'NONE', *, *, #220, .F. ) ;
#257 = ADVANCED_FACE ( 'NONE', ( #96 ), #55, .T. ) ;
#258 = CC_DESIGN_DATE_AND_TIME_ASSIGNMENT ( #108, #272, ( #222 ) ) ;
#259 = LOCAL_TIME ( 12, 34, 23.00000000000000000, #179 ) ;
#260 = DIRECTION ( 'NONE',  ( -1.000000000000000000, 0.0000000000000000000, 0.0000000000000000000 ) ) ;
#261 = VECTOR ( 'NONE', #183, 1000.000000000000000 ) ;
#262 = LINE ( 'NONE', #271, #85 ) ;
#263 = LINE ( 'NONE', #63, #203 ) ;
#264 = EDGE_LOOP ( 'NONE', ( #26, #172, #278, #281 ) ) ;
#265 = ADVANCED_FACE ( 'NONE', ( #135 ), #190, .T. ) ;
#266 =( GEOMETRIC_REPRESENTATION_CONTEXT ( 3 ) GLOBAL_UNCERTAINTY_ASSIGNED_CONTEXT ( ( #294 ) ) GLOBAL_UNIT_ASSIGNED_CONTEXT ( ( #296, #255, #48 ) ) REPRESENTATION_CONTEXT ( 'NONE', 'WORKASPACE' ) );
#267 = APPROVAL_ROLE ( '' ) ;
#268 = ADVANCED_FACE ( 'NONE', ( #151 ), #168, .T. ) ;
#269 = VECTOR ( 'NONE', #158, 1000.000000000000000 ) ;
#270 = EDGE_LOOP ( 'NONE', ( #300, #18, #6 ) ) ;
#271 = CARTESIAN_POINT ( 'NONE',  ( 4.999999999999999100, -5.000000000000000900, 5.000000000000000000 ) ) ;
#272 = DATE_TIME_ROLE ( 'classification_date' ) ;
#273 = LINE ( 'NONE', #67, #28 ) ;
#274 = LINE ( 'NONE', #153, #13 ) ;
#275 = CARTESIAN_POINT ( 'NONE',  ( -5.000000000000000900, -5.000000000000000900, 5.000000000000000000 ) ) ;
#276 = APPROVAL_DATE_TIME ( #194, #277 ) ;
#277 = APPROVAL ( #228, 'UNSPECIFIED' ) ;
#278 = ORIENTED_EDGE ( 'NONE', *, *, #202, .F. ) ;
#279 = PLANE ( 'NONE',  #303 ) ;
#280 = LINE ( 'NONE', #31, #269 ) ;
#281 = ORIENTED_EDGE ( 'NONE', *, *, #254, .T. ) ;
#282 = AXIS2_PLACEMENT_3D ( 'NONE', #54, #29, #122 ) ;
#283 = ADVANCED_FACE ( 'NONE', ( #139 ), #126, .F. ) ;
#284 = PERSON_AND_ORGANIZATION ( #195, #160 ) ;
#285 = ORIENTED_EDGE ( 'NONE', *, *, #295, .T. ) ;
#286 = DIRECTION ( 'NONE',  ( -0.0000000000000000000, -0.0000000000000000000, -1.000000000000000000 ) ) ;
#287 = APPLICATION_PROTOCOL_DEFINITION ( 'international standard', 'config_control_design', 1994, #78 ) ;
#288 = VECTOR ( 'NONE', #286, 1000.000000000000000 ) ;
#289 = CARTESIAN_POINT ( 'NONE',  ( -9.199760500100243800E-016, -9.199760500100243800E-016, 5.000000000000000000 ) ) ;
#290 = LINE ( 'NONE', #61, #261 ) ;
#291 = COORDINATED_UNIVERSAL_TIME_OFFSET ( 5, 0, .BEHIND. ) ;
#292 = CC_DESIGN_APPROVAL ( #277, ( #222 ) ) ;
#293 = CARTESIAN_POINT ( 'NONE',  ( -9.199760500100243800E-016, -9.199760500100243800E-016, -5.000000000000000000 ) ) ;
#294 = UNCERTAINTY_MEASURE_WITH_UNIT (LENGTH_MEASURE( 1.000000000000000100E-005 ), #296, 'distance_accuracy_value', 'NONE');
#295 = EDGE_CURVE ( 'NONE', #106, #147, #273, .T. ) ;
#296 =( LENGTH_UNIT ( ) NAMED_UNIT ( * ) SI_UNIT ( .MILLI., .METRE. ) );
#297 = DIRECTION ( 'NONE',  ( -0.0000000000000000000, 0.0000000000000000000, 1.000000000000000000 ) ) ;
#298 = DIRECTION ( 'NONE',  ( -0.0000000000000000000, 0.0000000000000000000, 1.000000000000000000 ) ) ;
#299 = CARTESIAN_POINT ( 'NONE',  ( -5.000000000000000900, 4.999999999999999100, 5.000000000000000000 ) ) ;
#300 = ORIENTED_EDGE ( 'NONE', *, *, #35, .T. ) ;
#301 = VERTEX_POINT ( 'NONE', #204 ) ;
#302 = ORIENTED_EDGE ( 'NONE', *, *, #117, .F. ) ;
#303 = AXIS2_PLACEMENT_3D ( 'NONE', #162, #260, #145 ) ;
#304 = APPROVAL_PERSON_ORGANIZATION ( #37, #277, #30 ) ;
#305 = ADVANCED_FACE ( 'NONE', ( #163 ), #20, .F. ) ;
#306 = PERSON_AND_ORGANIZATION_ROLE ( 'classification_officer' ) ;
#307 = CC_DESIGN_SECURITY_CLASSIFICATION ( #222, ( #134 ) ) ;
#308 = EDGE_CURVE ( 'NONE', #140, #4, #247, .T. ) ;
#309 = ORIENTED_EDGE ( 'NONE', *, *, #150, .T. ) ;
#310 = ORIENTED_EDGE ( 'NONE', *, *, #130, .F. ) ;
#311 = DIRECTION ( 'NONE',  ( 1.000000000000000000, 0.0000000000000000000, 0.0000000000000000000 ) ) ;
#312 = DIRECTION ( 'NONE',  ( 0.0000000000000000000, 1.000000000000000000, -0.0000000000000000000 ) ) ;
#313 = DATE_AND_TIME ( #52, #86 ) ;
#314 = CARTESIAN_POINT ( 'NONE',  ( 0.0000000000000000000, 0.0000000000000000000, 5.000000000000000000 ) ) ;
#315 = ADVANCED_FACE ( 'NONE', ( #213 ), #218, .F. ) ;
#316 = LINE ( 'NONE', #14, #111 ) ;
#317 = VERTEX_POINT ( 'NONE', #238 ) ;
#318 = ORIENTED_EDGE ( 'NONE', *, *, #167, .F. ) ;
#319 = VERTEX_POINT ( 'NONE', #110 ) ;
#320 = PRODUCT_RELATED_PRODUCT_CATEGORY ( 'detail', '', ( #242 ) ) ;
#321 = EDGE_CURVE ( 'NONE', #229, #166, #165, .T. ) ;
ENDSEC;
END-ISO-10303-21;
