ISO-10303-21;
HEADER;
FILE_DESCRIPTION (( 'STEP AP203' ),
    '1' );
FILE_NAME ('TTN049393-E0W.STEP',
    '2016-07-25T14:36:07',
    ( 'admin' ),
    ( '' ),
    'SwSTEP 2.0',
    'SolidWorks 2016',
    '' );
FILE_SCHEMA (( 'CONFIG_CONTROL_DESIGN' ));
ENDSEC;

DATA;
#1 = ORIENTED_EDGE ( 'NONE', *, *, #274, .F. ) ;
#2 = VERTEX_POINT ( 'NONE', #142 ) ;
#3 = APPROVAL_PERSON_ORGANIZATION ( #10, #98, #170 ) ;
#4 = AXIS2_PLACEMENT_3D ( 'NONE', #86, #251, #113 ) ;
#5 = CALENDAR_DATE ( 2016, 25, 7 ) ;
#6 = LINE ( 'NONE', #211, #301 ) ;
#7 = ADVANCED_FACE ( 'NONE', ( #171 ), #154, .T. ) ;
#8 = ORIENTED_EDGE ( 'NONE', *, *, #274, .T. ) ;
#9 = ORIENTED_EDGE ( 'NONE', *, *, #294, .F. ) ;
#10 = PERSON_AND_ORGANIZATION ( #286, #71 ) ;
#11 = AXIS2_PLACEMENT_3D ( 'NONE', #137, #297, #164 ) ;
#12 = DIRECTION ( 'NONE',  ( 1.000000000000000000, 0.0000000000000000000, -0.0000000000000000000 ) ) ;
#13 = CC_DESIGN_PERSON_AND_ORGANIZATION_ASSIGNMENT ( #111, #215, ( #143 ) ) ;
#14 = DIRECTION ( 'NONE',  ( 0.0000000000000000000, -3.061515884555943100E-016, 1.000000000000000000 ) ) ;
#15 = DIRECTION ( 'NONE',  ( -0.0000000000000000000, 3.061515884555803100E-016, -1.000000000000000000 ) ) ;
#16 = CONICAL_SURFACE ( 'NONE', #117, 0.5000000000000000000, 0.7572248611504786000 ) ;
#17 = CARTESIAN_POINT ( 'NONE',  ( 0.0000000000000000000, 1.051425801738519600E-015, -8.799606299212598500 ) ) ;
#18 = CC_DESIGN_APPROVAL ( #98, ( #290 ) ) ;
#19 = CARTESIAN_POINT ( 'NONE',  ( 0.0000000000000000000, 1.051425801738519600E-015, -8.799606299212598500 ) ) ;
#20 = CARTESIAN_POINT ( 'NONE',  ( 6.075019554825453600E-017, 0.4921259842519685200, -0.07874015748031487600 ) ) ;
#21 = FACE_OUTER_BOUND ( 'NONE', #149, .T. ) ;
#22 =( GEOMETRIC_REPRESENTATION_CONTEXT ( 3 ) GLOBAL_UNCERTAINTY_ASSIGNED_CONTEXT ( ( #169 ) ) GLOBAL_UNIT_ASSIGNED_CONTEXT ( ( #254, #116, #282 ) ) REPRESENTATION_CONTEXT ( 'NONE', 'WORKASPACE' ) );
#23 = LINE ( 'NONE', #245, #61 ) ;
#24 = APPLICATION_CONTEXT ( 'configuration controlled 3d designs of mechanical parts and assemblies' ) ;
#25 = PERSON_AND_ORGANIZATION_ROLE ( 'creator' ) ;
#26 = CALENDAR_DATE ( 2016, 25, 7 ) ;
#27 = LINE ( 'NONE', #277, #209 ) ;
#28 = PRODUCT ( 'TTN049393-E0W', 'TTN049393-E0W', '', ( #213 ) ) ;
#29 = ADVANCED_FACE ( 'NONE', ( #21 ), #259, .T. ) ;
#30 = ORIENTED_EDGE ( 'NONE', *, *, #100, .T. ) ;
#31 = CC_DESIGN_DATE_AND_TIME_ASSIGNMENT ( #188, #67, ( #143 ) ) ;
#32 = ORIENTED_EDGE ( 'NONE', *, *, #266, .T. ) ;
#33 = AXIS2_PLACEMENT_3D ( 'NONE', #298, #165, #77 ) ;
#34 = DIRECTION ( 'NONE',  ( 0.0000000000000000000, -0.7071067811865446900, 0.7071067811865503500 ) ) ;
#35 = APPROVAL_PERSON_ORGANIZATION ( #102, #50, #90 ) ;
#36 = DIRECTION ( 'NONE',  ( 0.0000000000000000000, 1.000000000000000000, 3.073328992872296400E-016 ) ) ;
#37 = LINE ( 'NONE', #64, #140 ) ;
#38 = CARTESIAN_POINT ( 'NONE',  ( 0.0000000000000000000, 0.5000000000000000000, 0.05677576240263615400 ) ) ;
#39 = DIRECTION ( 'NONE',  ( 0.0000000000000000000, 1.000000000000000000, 3.073328992872296400E-016 ) ) ;
#40 = DESIGN_CONTEXT ( 'detailed design', #232, 'design' ) ;
#41 = DIRECTION ( 'NONE',  ( 0.0000000000000000000, 1.000000000000000000, 2.461582689515224600E-016 ) ) ;
#42 = DIRECTION ( 'NONE',  ( -1.224646799147353200E-016, 1.000000000000000000, 0.0000000000000000000 ) ) ;
#43 = CIRCLE ( 'NONE', #141, 0.5000000000000000000 ) ;
#44 = CARTESIAN_POINT ( 'NONE',  ( 0.0000000000000000000, 0.5000000000000000000, -0.07874015748031480700 ) ) ;
#45 = CALENDAR_DATE ( 2016, 25, 7 ) ;
#46 = VERTEX_POINT ( 'NONE', #189 ) ;
#47 = DATE_AND_TIME ( #26, #134 ) ;
#48 = DIRECTION ( 'NONE',  ( 1.000000000000000000, 0.0000000000000000000, 0.0000000000000000000 ) ) ;
#49 = SECURITY_CLASSIFICATION_LEVEL ( 'unclassified' ) ;
#50 = APPROVAL ( #233, 'UNSPECIFIED' ) ;
#51 = EDGE_CURVE ( 'NONE', #80, #124, #6, .T. ) ;
#52 = AXIS2_PLACEMENT_3D ( 'NONE', #19, #185, #42 ) ;
#53 = ORIENTED_EDGE ( 'NONE', *, *, #51, .F. ) ;
#54 = EDGE_CURVE ( 'NONE', #173, #300, #210, .T. ) ;
#55 = ADVANCED_FACE ( 'NONE', ( #196 ), #199, .T. ) ;
#56 = VECTOR ( 'NONE', #242, 39.37007874015748100 ) ;
#57 = AXIS2_PLACEMENT_3D ( 'NONE', #17, #84, #41 ) ;
#58 = DIRECTION ( 'NONE',  ( 0.0000000000000000000, 1.000000000000000000, 3.073328992872296400E-016 ) ) ;
#59 = DATE_AND_TIME ( #5, #101 ) ;
#60 = DIRECTION ( 'NONE',  ( -0.0000000000000000000, 3.061515884555803100E-016, -1.000000000000000000 ) ) ;
#61 = VECTOR ( 'NONE', #186, 39.37007874015748100 ) ;
#62 = CC_DESIGN_APPROVAL ( #50, ( #143 ) ) ;
#63 = PERSON_AND_ORGANIZATION ( #286, #71 ) ;
#64 = CARTESIAN_POINT ( 'NONE',  ( 0.0000000000000000000, -0.4921259842519685200, -0.07874015748031518200 ) ) ;
#65 = SHAPE_DEFINITION_REPRESENTATION ( #217, #272 ) ;
#66 = PERSON_AND_ORGANIZATION_ROLE ( 'design_owner' ) ;
#67 = DATE_TIME_ROLE ( 'classification_date' ) ;
#68 = COORDINATED_UNIVERSAL_TIME_OFFSET ( 5, 0, .BEHIND. ) ;
#69 = CIRCLE ( 'NONE', #4, 0.4921419690847055300 ) ;
#70 = FACE_OUTER_BOUND ( 'NONE', #269, .T. ) ;
#71 = ORGANIZATION ( 'UNSPECIFIED', 'UNSPECIFIED', '' ) ;
#72 = ORIENTED_EDGE ( 'NONE', *, *, #87, .T. ) ;
#73 = CONICAL_SURFACE ( 'NONE', #96, 0.5000000000000000000, 0.7572248611504786000 ) ;
#74 = CC_DESIGN_SECURITY_CLASSIFICATION ( #143, ( #290 ) ) ;
#75 = CIRCLE ( 'NONE', #93, 0.4921259842519685200 ) ;
#76 = SPHERICAL_SURFACE ( 'NONE', #57, 8.878346456692913300 ) ;
#77 = DIRECTION ( 'NONE',  ( 0.0000000000000000000, 1.000000000000000000, 3.122400837494238400E-016 ) ) ;
#78 = CARTESIAN_POINT ( 'NONE',  ( 0.0000000000000000000, 1.051425801738519600E-015, -8.799606299212598500 ) ) ;
#79 = ORIENTED_EDGE ( 'NONE', *, *, #288, .F. ) ;
#80 = VERTEX_POINT ( 'NONE', #126 ) ;
#81 = CARTESIAN_POINT ( 'NONE',  ( 0.0000000000000000000, 0.5000000000000000000, 0.05677576240263609200 ) ) ;
#82 = PERSON_AND_ORGANIZATION ( #286, #71 ) ;
#83 = CYLINDRICAL_SURFACE ( 'NONE', #121, 0.5000000000000000000 ) ;
#84 = DIRECTION ( 'NONE',  ( 1.000000000000000000, 0.0000000000000000000, -0.0000000000000000000 ) ) ;
#85 = DIRECTION ( 'NONE',  ( -0.0000000000000000000, 3.061515884555943100E-016, -1.000000000000000000 ) ) ;
#86 = CARTESIAN_POINT ( 'NONE',  ( 0.0000000000000000000, -1.662514906564086900E-015, 0.06508952677810540800 ) ) ;
#87 = EDGE_CURVE ( 'NONE', #2, #109, #37, .T. ) ;
#88 = APPLICATION_PROTOCOL_DEFINITION ( 'international standard', 'config_control_design', 1994, #232 ) ;
#89 = APPROVAL_DATE_TIME ( #47, #50 ) ;
#90 = APPROVAL_ROLE ( '' ) ;
#91 = PRODUCT_RELATED_PRODUCT_CATEGORY ( 'detail', '', ( #28 ) ) ;
#92 = LINE ( 'NONE', #81, #56 ) ;
#93 = AXIS2_PLACEMENT_3D ( 'NONE', #112, #276, #136 ) ;
#94 = ORIENTED_EDGE ( 'NONE', *, *, #110, .F. ) ;
#95 = ORIENTED_EDGE ( 'NONE', *, *, #181, .T. ) ;
#96 = AXIS2_PLACEMENT_3D ( 'NONE', #178, #60, #58 ) ;
#97 = ADVANCED_FACE ( 'NONE', ( #252 ), #73, .T. ) ;
#98 = APPROVAL ( #304, 'UNSPECIFIED' ) ;
#99 = ORIENTED_EDGE ( 'NONE', *, *, #291, .T. ) ;
#100 = EDGE_CURVE ( 'NONE', #300, #109, #43, .T. ) ;
#101 = LOCAL_TIME ( 10, 36, 7.000000000000000000, #202 ) ;
#102 = PERSON_AND_ORGANIZATION ( #286, #71 ) ;
#103 = ORIENTED_EDGE ( 'NONE', *, *, #203, .T. ) ;
#104 = VERTEX_POINT ( 'NONE', #223 ) ;
#105 = CC_DESIGN_PERSON_AND_ORGANIZATION_ASSIGNMENT ( #63, #284, ( #172 ) ) ;
#106 = DIRECTION ( 'NONE',  ( 0.0000000000000000000, 0.0000000000000000000, 1.000000000000000000 ) ) ;
#107 = DIRECTION ( 'NONE',  ( 0.0000000000000000000, 1.000000000000000000, 2.461582689515224600E-016 ) ) ;
#108 = CARTESIAN_POINT ( 'NONE',  ( 0.0000000000000000000, 9.980059655166633800E-018, -0.07086614173228351900 ) ) ;
#109 = VERTEX_POINT ( 'NONE', #219 ) ;
#110 = EDGE_CURVE ( 'NONE', #104, #46, #201, .T. ) ;
#111 = PERSON_AND_ORGANIZATION ( #286, #71 ) ;
#112 = CARTESIAN_POINT ( 'NONE',  ( 0.0000000000000000000, 1.239070208395084800E-017, -0.07874015748031502900 ) ) ;
#113 = DIRECTION ( 'NONE',  ( 0.0000000000000000000, 1.000000000000000000, 3.122400837494238400E-016 ) ) ;
#114 = DIRECTION ( 'NONE',  ( 0.0000000000000000000, -3.061515884555943100E-016, 1.000000000000000000 ) ) ;
#115 = EDGE_LOOP ( 'NONE', ( #295, #8, #133, #167 ) ) ;
#116 =( NAMED_UNIT ( * ) PLANE_ANGLE_UNIT ( ) SI_UNIT ( $, .RADIAN. ) );
#117 = AXIS2_PLACEMENT_3D ( 'NONE', #273, #205, #36 ) ;
#118 = APPROVAL_ROLE ( '' ) ;
#119 = ORIENTED_EDGE ( 'NONE', *, *, #246, .T. ) ;
#120 = LOCAL_TIME ( 10, 36, 7.000000000000000000, #68 ) ;
#121 = AXIS2_PLACEMENT_3D ( 'NONE', #208, #225, #39 ) ;
#122 = AXIS2_PLACEMENT_3D ( 'NONE', #161, #180, #296 ) ;
#123 = ADVANCED_FACE ( 'NONE', ( #147 ), #268, .T. ) ;
#124 = VERTEX_POINT ( 'NONE', #204 ) ;
#125 = PERSON_AND_ORGANIZATION ( #286, #71 ) ;
#126 = CARTESIAN_POINT ( 'NONE',  ( 6.027000871656770700E-017, -0.4921419690847209100, 0.06508952677810533900 ) ) ;
#127 = LOCAL_TIME ( 10, 36, 7.000000000000000000, #293 ) ;
#128 = DIRECTION ( 'NONE',  ( -0.0000000000000000000, 3.061515884555943100E-016, -1.000000000000000000 ) ) ;
#129 = LENGTH_MEASURE_WITH_UNIT ( LENGTH_MEASURE( 0.02539999999999999900 ), #139 );
#130 = DIRECTION ( 'NONE',  ( 0.0000000000000000000, 1.000000000000000000, 3.061515884555943100E-016 ) ) ;
#131 = AXIS2_PLACEMENT_3D ( 'NONE', #108, #275, #135 ) ;
#132 = EDGE_LOOP ( 'NONE', ( #94, #262, #99 ) ) ;
#133 = ORIENTED_EDGE ( 'NONE', *, *, #203, .F. ) ;
#134 = LOCAL_TIME ( 10, 36, 7.000000000000000000, #258 ) ;
#135 = DIRECTION ( 'NONE',  ( 0.0000000000000000000, 1.000000000000000000, 3.073328992872296400E-016 ) ) ;
#136 = DIRECTION ( 'NONE',  ( 0.0000000000000000000, 1.000000000000000000, 3.122502256758253300E-016 ) ) ;
#137 = CARTESIAN_POINT ( 'NONE',  ( 0.0000000000000000000, -2.909771204923567100E-017, 0.05677576240263600100 ) ) ;
#138 = CARTESIAN_POINT ( 'NONE',  ( 0.0000000000000000000, 1.239070208395084800E-017, -0.07874015748031502900 ) ) ;
#139 =( LENGTH_UNIT ( ) NAMED_UNIT ( * ) SI_UNIT ( $, .METRE. ) );
#140 = VECTOR ( 'NONE', #34, 39.37007874015748100 ) ;
#141 = AXIS2_PLACEMENT_3D ( 'NONE', #158, #14, #179 ) ;
#142 = CARTESIAN_POINT ( 'NONE',  ( 0.0000000000000000000, -0.4921259842519685200, -0.07874015748031518200 ) ) ;
#143 = SECURITY_CLASSIFICATION ( '', '', #49 ) ;
#144 = DATE_TIME_ROLE ( 'creation_date' ) ;
#145 = ORIENTED_EDGE ( 'NONE', *, *, #181, .F. ) ;
#146 = AXIS2_PLACEMENT_3D ( 'NONE', #253, #114, #281 ) ;
#147 = FACE_OUTER_BOUND ( 'NONE', #243, .T. ) ;
#148 = ADVANCED_FACE ( 'NONE', ( #236 ), #234, .T. ) ;
#149 = EDGE_LOOP ( 'NONE', ( #1, #235, #72, #163 ) ) ;
#150 = AXIS2_PLACEMENT_3D ( 'NONE', #157, #12, #107 ) ;
#151 = EDGE_CURVE ( 'NONE', #46, #173, #92, .T. ) ;
#152 = DATE_AND_TIME ( #200, #120 ) ;
#153 = CIRCLE ( 'NONE', #52, 8.878346456692913300 ) ;
#154 = CONICAL_SURFACE ( 'NONE', #146, 0.4921259842519685200, 0.7853981633974439500 ) ;
#155 = CC_DESIGN_PERSON_AND_ORGANIZATION_ASSIGNMENT ( #260, #66, ( #28 ) ) ;
#156 = AXIS2_PLACEMENT_3D ( 'NONE', #224, #270, #130 ) ;
#157 = CARTESIAN_POINT ( 'NONE',  ( 0.0000000000000000000, 1.051425801738519600E-015, -8.799606299212598500 ) ) ;
#158 = CARTESIAN_POINT ( 'NONE',  ( 0.0000000000000000000, 9.980059655166633800E-018, -0.07086614173228351900 ) ) ;
#159 = ORIENTED_EDGE ( 'NONE', *, *, #151, .F. ) ;
#160 = APPROVAL ( #255, 'UNSPECIFIED' ) ;
#161 = CARTESIAN_POINT ( 'NONE',  ( 0.0000000000000000000, 1.239070208395082800E-017, -0.07874015748031496000 ) ) ;
#162 = CARTESIAN_POINT ( 'NONE',  ( 0.0000000000000000000, -2.909771204923567100E-017, 0.05677576240263600100 ) ) ;
#163 = ORIENTED_EDGE ( 'NONE', *, *, #100, .F. ) ;
#164 = DIRECTION ( 'NONE',  ( 0.0000000000000000000, -1.000000000000000000, -3.073328992872296400E-016 ) ) ;
#165 = DIRECTION ( 'NONE',  ( 0.0000000000000000000, -3.061515884555803100E-016, 1.000000000000000000 ) ) ;
#166 = EDGE_LOOP ( 'NONE', ( #289, #299, #183 ) ) ;
#167 = ORIENTED_EDGE ( 'NONE', *, *, #87, .F. ) ;
#168 = AXIS2_PLACEMENT_3D ( 'NONE', #162, #15, #182 ) ;
#169 = UNCERTAINTY_MEASURE_WITH_UNIT (LENGTH_MEASURE( 1.000000000000000100E-005 ), #254, 'distance_accuracy_value', 'NONE');
#170 = APPROVAL_ROLE ( '' ) ;
#171 = FACE_OUTER_BOUND ( 'NONE', #115, .T. ) ;
#172 = PRODUCT_DEFINITION ( 'UNKNOWN', '', #290, #40 ) ;
#173 = VERTEX_POINT ( 'NONE', #38 ) ;
#174 = APPROVAL_DATE_TIME ( #59, #160 ) ;
#175 = CC_DESIGN_APPROVAL ( #160, ( #172 ) ) ;
#176 = EDGE_LOOP ( 'NONE', ( #95, #249, #103, #195 ) ) ;
#177 = EDGE_LOOP ( 'NONE', ( #238, #244, #145, #159 ) ) ;
#178 = CARTESIAN_POINT ( 'NONE',  ( 0.0000000000000000000, -2.909771204923538700E-017, 0.05677576240263593200 ) ) ;
#179 = DIRECTION ( 'NONE',  ( 0.0000000000000000000, 1.000000000000000000, 3.073328992872296400E-016 ) ) ;
#180 = DIRECTION ( 'NONE',  ( -0.0000000000000000000, 3.061515884555943100E-016, -1.000000000000000000 ) ) ;
#181 = EDGE_CURVE ( 'NONE', #173, #124, #278, .T. ) ;
#182 = DIRECTION ( 'NONE',  ( 0.0000000000000000000, -1.000000000000000000, -3.073328992872296400E-016 ) ) ;
#183 = ORIENTED_EDGE ( 'NONE', *, *, #288, .T. ) ;
#184 = VECTOR ( 'NONE', #128, 39.37007874015748100 ) ;
#185 = DIRECTION ( 'NONE',  ( 1.000000000000000000, 1.224646799147353200E-016, 3.749275628560213600E-032 ) ) ;
#186 = DIRECTION ( 'NONE',  ( -0.0000000000000000000, 3.061515884555943100E-016, -1.000000000000000000 ) ) ;
#187 = LOCAL_TIME ( 10, 36, 7.000000000000000000, #229 ) ;
#188 = DATE_AND_TIME ( #261, #127 ) ;
#189 = CARTESIAN_POINT ( 'NONE',  ( 0.0000000000000000000, 0.4921419690847176300, 0.06508952677810549100 ) ) ;
#190 = PERSON_AND_ORGANIZATION ( #286, #71 ) ;
#191 = MANIFOLD_SOLID_BREP ( 'TTN049394-1-solid1', #206 ) ;
#192 = DIRECTION ( 'NONE',  ( 0.0000000000000000000, 0.0000000000000000000, 1.000000000000000000 ) ) ;
#193 = PERSON_AND_ORGANIZATION_ROLE ( 'design_supplier' ) ;
#194 = ORIENTED_EDGE ( 'NONE', *, *, #54, .T. ) ;
#195 = ORIENTED_EDGE ( 'NONE', *, *, #54, .F. ) ;
#196 = FACE_OUTER_BOUND ( 'NONE', #166, .T. ) ;
#197 = ADVANCED_FACE ( 'NONE', ( #207 ), #16, .T. ) ;
#198 = AXIS2_PLACEMENT_3D ( 'NONE', #78, #241, #106 ) ;
#199 = SPHERICAL_SURFACE ( 'NONE', #150, 8.878346456692913300 ) ;
#200 = CALENDAR_DATE ( 2016, 25, 7 ) ;
#201 = CIRCLE ( 'NONE', #198, 8.878346456692913300 ) ;
#202 = COORDINATED_UNIVERSAL_TIME_OFFSET ( 5, 0, .BEHIND. ) ;
#203 = EDGE_CURVE ( 'NONE', #109, #300, #220, .T. ) ;
#204 = CARTESIAN_POINT ( 'NONE',  ( 6.123233995736766000E-017, -0.5000000000000000000, 0.05677576240263584900 ) ) ;
#205 = DIRECTION ( 'NONE',  ( -0.0000000000000000000, 3.061515884555803100E-016, -1.000000000000000000 ) ) ;
#206 = CLOSED_SHELL ( 'NONE', ( #197, #7, #148, #237, #123, #55, #218, #29, #97 ) ) ;
#207 = FACE_OUTER_BOUND ( 'NONE', #177, .T. ) ;
#208 = CARTESIAN_POINT ( 'NONE',  ( 0.0000000000000000000, 1.239070208395082800E-017, -0.07874015748031496000 ) ) ;
#209 = VECTOR ( 'NONE', #226, 39.37007874015748100 ) ;
#210 = LINE ( 'NONE', #44, #184 ) ;
#211 = CARTESIAN_POINT ( 'NONE',  ( 6.123233995736764800E-017, -0.5000000000000000000, 0.05677576240263577900 ) ) ;
#212 = CC_DESIGN_DATE_AND_TIME_ASSIGNMENT ( #240, #144, ( #172 ) ) ;
#213 = MECHANICAL_CONTEXT ( 'NONE', #24, 'mechanical' ) ;
#214 = FACE_OUTER_BOUND ( 'NONE', #132, .T. ) ;
#215 = PERSON_AND_ORGANIZATION_ROLE ( 'classification_officer' ) ;
#216 = CIRCLE ( 'NONE', #265, 0.4921259842519685200 ) ;
#217 = PRODUCT_DEFINITION_SHAPE ( 'NONE', 'NONE',  #172 ) ;
#218 = ADVANCED_FACE ( 'NONE', ( #70 ), #83, .T. ) ;
#219 = CARTESIAN_POINT ( 'NONE',  ( 6.123233995736766000E-017, -0.5000000000000000000, -0.07086614173228367200 ) ) ;
#220 = CIRCLE ( 'NONE', #131, 0.5000000000000000000 ) ;
#221 = CIRCLE ( 'NONE', #33, 0.4921419690847055300 ) ;
#222 = AXIS2_PLACEMENT_3D ( 'NONE', #138, #228, #302 ) ;
#223 = CARTESIAN_POINT ( 'NONE',  ( 0.0000000000000000000, -1.123052140341601800E-015, 0.07874015748031502900 ) ) ;
#224 = CARTESIAN_POINT ( 'NONE',  ( 0.0000000000000000000, 1.239070208395084900E-017, -0.07874015748031502900 ) ) ;
#225 = DIRECTION ( 'NONE',  ( -0.0000000000000000000, 3.061515884555943100E-016, -1.000000000000000000 ) ) ;
#226 = DIRECTION ( 'NONE',  ( 8.659560562354895900E-017, 0.7071067811865442400, 0.7071067811865507900 ) ) ;
#227 = CARTESIAN_POINT ( 'NONE',  ( 0.0000000000000000000, 1.239070208395084800E-017, -0.07874015748031502900 ) ) ;
#228 = DIRECTION ( 'NONE',  ( 0.0000000000000000000, -3.061515884555943100E-016, 1.000000000000000000 ) ) ;
#229 = COORDINATED_UNIVERSAL_TIME_OFFSET ( 5, 0, .BEHIND. ) ;
#230 = EDGE_LOOP ( 'NONE', ( #53, #79, #287, #239 ) ) ;
#231 = CARTESIAN_POINT ( 'NONE',  ( 0.0000000000000000000, 0.5000000000000000000, -0.07086614173228336600 ) ) ;
#232 = APPLICATION_CONTEXT ( 'configuration controlled 3d designs of mechanical parts and assemblies' ) ;
#233 = APPROVAL_STATUS ( 'not_yet_approved' ) ;
#234 = CYLINDRICAL_SURFACE ( 'NONE', #122, 0.5000000000000000000 ) ;
#235 = ORIENTED_EDGE ( 'NONE', *, *, #246, .F. ) ;
#236 = FACE_OUTER_BOUND ( 'NONE', #176, .T. ) ;
#237 = ADVANCED_FACE ( 'NONE', ( #214 ), #76, .T. ) ;
#238 = ORIENTED_EDGE ( 'NONE', *, *, #291, .F. ) ;
#239 = ORIENTED_EDGE ( 'NONE', *, *, #266, .F. ) ;
#240 = DATE_AND_TIME ( #45, #187 ) ;
#241 = DIRECTION ( 'NONE',  ( -1.000000000000000000, 0.0000000000000000000, 0.0000000000000000000 ) ) ;
#242 = DIRECTION ( 'NONE',  ( 0.0000000000000000000, 0.6869072742929284200, -0.7267450698308586300 ) ) ;
#243 = EDGE_LOOP ( 'NONE', ( #119, #271 ) ) ;
#244 = ORIENTED_EDGE ( 'NONE', *, *, #51, .T. ) ;
#245 = CARTESIAN_POINT ( 'NONE',  ( 6.123233995736766000E-017, -0.5000000000000000000, -0.07874015748031511200 ) ) ;
#246 = EDGE_CURVE ( 'NONE', #2, #283, #75, .T. ) ;
#247 = DIRECTION ( 'NONE',  ( 0.0000000000000000000, 1.000000000000000000, 3.122502256758253300E-016 ) ) ;
#248 = AXIS2_PLACEMENT_3D ( 'NONE', #280, #192, #48 ) ;
#249 = ORIENTED_EDGE ( 'NONE', *, *, #294, .T. ) ;
#250 = EDGE_CURVE ( 'NONE', #104, #80, #153, .T. ) ;
#251 = DIRECTION ( 'NONE',  ( 0.0000000000000000000, -3.061515884555803100E-016, 1.000000000000000000 ) ) ;
#252 = FACE_OUTER_BOUND ( 'NONE', #230, .T. ) ;
#253 = CARTESIAN_POINT ( 'NONE',  ( 0.0000000000000000000, 1.239070208395084800E-017, -0.07874015748031502900 ) ) ;
#254 =( CONVERSION_BASED_UNIT ( 'INCH', #129 ) LENGTH_UNIT ( ) NAMED_UNIT ( #263 ) );
#255 = APPROVAL_STATUS ( 'not_yet_approved' ) ;
#256 = EDGE_CURVE ( 'NONE', #283, #2, #216, .T. ) ;
#257 = APPROVAL_DATE_TIME ( #152, #98 ) ;
#258 = COORDINATED_UNIVERSAL_TIME_OFFSET ( 5, 0, .BEHIND. ) ;
#259 = CONICAL_SURFACE ( 'NONE', #222, 0.4921259842519685200, 0.7853981633974439500 ) ;
#260 = PERSON_AND_ORGANIZATION ( #286, #71 ) ;
#261 = CALENDAR_DATE ( 2016, 25, 7 ) ;
#262 = ORIENTED_EDGE ( 'NONE', *, *, #250, .T. ) ;
#263 = DIMENSIONAL_EXPONENTS ( 1.000000000000000000, 0.0000000000000000000, 0.0000000000000000000, 0.0000000000000000000, 0.0000000000000000000, 0.0000000000000000000, 0.0000000000000000000 ) ;
#264 = CIRCLE ( 'NONE', #11, 0.5000000000000000000 ) ;
#265 = AXIS2_PLACEMENT_3D ( 'NONE', #227, #85, #247 ) ;
#266 = EDGE_CURVE ( 'NONE', #124, #173, #264, .T. ) ;
#267 = DIRECTION ( 'NONE',  ( 8.412187947738673100E-017, -0.6869072742929279700, -0.7267450698308590700 ) ) ;
#268 = PLANE ( 'NONE',  #156 ) ;
#269 = EDGE_LOOP ( 'NONE', ( #9, #32, #194, #30 ) ) ;
#270 = DIRECTION ( 'NONE',  ( -0.0000000000000000000, 3.061515884555943100E-016, -1.000000000000000000 ) ) ;
#271 = ORIENTED_EDGE ( 'NONE', *, *, #256, .T. ) ;
#272 = ADVANCED_BREP_SHAPE_REPRESENTATION ( 'TTN049393-E0W', ( #191, #248 ), #22 ) ;
#273 = CARTESIAN_POINT ( 'NONE',  ( 0.0000000000000000000, -2.909771204923538700E-017, 0.05677576240263593200 ) ) ;
#274 = EDGE_CURVE ( 'NONE', #283, #300, #27, .T. ) ;
#275 = DIRECTION ( 'NONE',  ( 0.0000000000000000000, -3.061515884555943100E-016, 1.000000000000000000 ) ) ;
#276 = DIRECTION ( 'NONE',  ( -0.0000000000000000000, 3.061515884555943100E-016, -1.000000000000000000 ) ) ;
#277 = CARTESIAN_POINT ( 'NONE',  ( 6.026805113914139900E-017, 0.4921259842519685200, -0.07874015748031487600 ) ) ;
#278 = CIRCLE ( 'NONE', #168, 0.5000000000000000000 ) ;
#279 = APPROVAL_PERSON_ORGANIZATION ( #190, #160, #118 ) ;
#280 = CARTESIAN_POINT ( 'NONE',  ( 0.0000000000000000000, 0.0000000000000000000, 0.0000000000000000000 ) ) ;
#281 = DIRECTION ( 'NONE',  ( 0.0000000000000000000, -1.000000000000000000, -3.122502256758253300E-016 ) ) ;
#282 =( NAMED_UNIT ( * ) SI_UNIT ( $, .STERADIAN. ) SOLID_ANGLE_UNIT ( ) );
#283 = VERTEX_POINT ( 'NONE', #20 ) ;
#284 = PERSON_AND_ORGANIZATION_ROLE ( 'creator' ) ;
#285 = CC_DESIGN_PERSON_AND_ORGANIZATION_ASSIGNMENT ( #125, #25, ( #290 ) ) ;
#286 = PERSON ( 'UNSPECIFIED', 'UNSPECIFIED', 'UNSPECIFIED', ('UNSPECIFIED'), ('UNSPECIFIED'), ('UNSPECIFIED') ) ;
#287 = ORIENTED_EDGE ( 'NONE', *, *, #151, .T. ) ;
#288 = EDGE_CURVE ( 'NONE', #46, #80, #69, .T. ) ;
#289 = ORIENTED_EDGE ( 'NONE', *, *, #250, .F. ) ;
#290 = PRODUCT_DEFINITION_FORMATION_WITH_SPECIFIED_SOURCE ( 'ANY', '', #28, .NOT_KNOWN. ) ;
#291 = EDGE_CURVE ( 'NONE', #80, #46, #221, .T. ) ;
#292 = CC_DESIGN_PERSON_AND_ORGANIZATION_ASSIGNMENT ( #82, #193, ( #290 ) ) ;
#293 = COORDINATED_UNIVERSAL_TIME_OFFSET ( 5, 0, .BEHIND. ) ;
#294 = EDGE_CURVE ( 'NONE', #124, #109, #23, .T. ) ;
#295 = ORIENTED_EDGE ( 'NONE', *, *, #256, .F. ) ;
#296 = DIRECTION ( 'NONE',  ( 0.0000000000000000000, 1.000000000000000000, 3.073328992872296400E-016 ) ) ;
#297 = DIRECTION ( 'NONE',  ( -0.0000000000000000000, 3.061515884555803100E-016, -1.000000000000000000 ) ) ;
#298 = CARTESIAN_POINT ( 'NONE',  ( 0.0000000000000000000, -1.662514906564086900E-015, 0.06508952677810540800 ) ) ;
#299 = ORIENTED_EDGE ( 'NONE', *, *, #110, .T. ) ;
#300 = VERTEX_POINT ( 'NONE', #231 ) ;
#301 = VECTOR ( 'NONE', #267, 39.37007874015748100 ) ;
#302 = DIRECTION ( 'NONE',  ( 0.0000000000000000000, -1.000000000000000000, -3.122502256758253300E-016 ) ) ;
#303 = APPLICATION_PROTOCOL_DEFINITION ( 'international standard', 'config_control_design', 1994, #24 ) ;
#304 = APPROVAL_STATUS ( 'not_yet_approved' ) ;
ENDSEC;
END-ISO-10303-21;
