ISO-10303-21;
HEADER;
FILE_DESCRIPTION (( 'STEP AP203' ),
    '1' );
FILE_NAME ('Web Model 89571.STEP',
    '2017-02-01T16:31:56',
    ( '' ),
    ( '' ),
    'SwSTEP 2.0',
    'SolidWorks 2016',
    '' );
FILE_SCHEMA (( 'CONFIG_CONTROL_DESIGN' ));
ENDSEC;

DATA;
#1 = CC_DESIGN_PERSON_AND_ORGANIZATION_ASSIGNMENT ( #129, #35, ( #3 ) ) ;
#2 = PERSON_AND_ORGANIZATION ( #71, #43 ) ;
#3 = PRODUCT ( 'Web Model 89571', 'Web Model 89571', '', ( #21 ) ) ;
#4 = CARTESIAN_POINT ( 'NONE',  ( 5.000000000000000000, 4.592425496802575200E-015, -37.50000000000000700 ) ) ;
#5 = UNCERTAINTY_MEASURE_WITH_UNIT (LENGTH_MEASURE( 1.000000000000000100E-005 ), #83, 'distance_accuracy_value', 'NONE');
#6 = APPROVAL_ROLE ( '' ) ;
#7 = DIRECTION ( 'NONE',  ( 1.000000000000000000, 0.0000000000000000000, 0.0000000000000000000 ) ) ;
#8 = CC_DESIGN_SECURITY_CLASSIFICATION ( #89, ( #171 ) ) ;
#9 = VERTEX_POINT ( 'NONE', #100 ) ;
#10 = CARTESIAN_POINT ( 'NONE',  ( 5.000000000000000000, 0.0000000000000000000, 0.0000000000000000000 ) ) ;
#11 = CC_DESIGN_DATE_AND_TIME_ASSIGNMENT ( #25, #124, ( #89 ) ) ;
#12 = LOCAL_TIME ( 11, 31, 56.00000000000000000, #42 ) ;
#13 = PRODUCT_DEFINITION_SHAPE ( 'NONE', 'NONE',  #151 ) ;
#14 = LOCAL_TIME ( 11, 31, 56.00000000000000000, #73 ) ;
#15 = VECTOR ( 'NONE', #58, 1000.000000000000000 ) ;
#16 = CIRCLE ( 'NONE', #108, 37.50000000000000700 ) ;
#17 = PERSON_AND_ORGANIZATION ( #71, #43 ) ;
#18 = ORIENTED_EDGE ( 'NONE', *, *, #52, .F. ) ;
#19 = AXIS2_PLACEMENT_3D ( 'NONE', #85, #36, #7 ) ;
#20 = DIRECTION ( 'NONE',  ( 1.000000000000000000, 0.0000000000000000000, 0.0000000000000000000 ) ) ;
#21 = MECHANICAL_CONTEXT ( 'NONE', #62, 'mechanical' ) ;
#22 = DIRECTION ( 'NONE',  ( 0.0000000000000000000, 0.0000000000000000000, -1.000000000000000000 ) ) ;
#23 = DIRECTION ( 'NONE',  ( 0.0000000000000000000, 0.0000000000000000000, -1.000000000000000000 ) ) ;
#24 = EDGE_LOOP ( 'NONE', ( #18, #168, #160, #26 ) ) ;
#25 = DATE_AND_TIME ( #137, #12 ) ;
#26 = ORIENTED_EDGE ( 'NONE', *, *, #30, .T. ) ;
#27 = DATE_AND_TIME ( #169, #48 ) ;
#28 = MANIFOLD_SOLID_BREP ( 'Extrude1', #56 ) ;
#29 = ORIENTED_EDGE ( 'NONE', *, *, #77, .F. ) ;
#30 = EDGE_CURVE ( 'NONE', #128, #9, #111, .T. ) ;
#31 = ADVANCED_FACE ( 'NONE', ( #72 ), #105, .T. ) ;
#32 = ADVANCED_BREP_SHAPE_REPRESENTATION ( 'Web Model 89571', ( #28, #19 ), #148 ) ;
#33 = APPROVAL_ROLE ( '' ) ;
#34 = FACE_OUTER_BOUND ( 'NONE', #24, .T. ) ;
#35 = PERSON_AND_ORGANIZATION_ROLE ( 'design_owner' ) ;
#36 = DIRECTION ( 'NONE',  ( 0.0000000000000000000, 0.0000000000000000000, 1.000000000000000000 ) ) ;
#37 = CARTESIAN_POINT ( 'NONE',  ( 5.000000000000000000, 0.0000000000000000000, 37.50000000000000700 ) ) ;
#38 = DIRECTION ( 'NONE',  ( 0.0000000000000000000, 0.0000000000000000000, -1.000000000000000000 ) ) ;
#39 = ORIENTED_EDGE ( 'NONE', *, *, #77, .T. ) ;
#40 = CARTESIAN_POINT ( 'NONE',  ( 0.0000000000000000000, 0.0000000000000000000, 0.0000000000000000000 ) ) ;
#41 = VERTEX_POINT ( 'NONE', #135 ) ;
#42 = COORDINATED_UNIVERSAL_TIME_OFFSET ( 5, 0, .BEHIND. ) ;
#43 = ORGANIZATION ( 'UNSPECIFIED', 'UNSPECIFIED', '' ) ;
#44 = PERSON_AND_ORGANIZATION ( #71, #43 ) ;
#45 = FACE_OUTER_BOUND ( 'NONE', #116, .T. ) ;
#46 = AXIS2_PLACEMENT_3D ( 'NONE', #121, #20, #23 ) ;
#47 = PERSON_AND_ORGANIZATION ( #71, #43 ) ;
#48 = LOCAL_TIME ( 11, 31, 56.00000000000000000, #67 ) ;
#49 = APPLICATION_PROTOCOL_DEFINITION ( 'international standard', 'config_control_design', 1994, #70 ) ;
#50 = PERSON_AND_ORGANIZATION_ROLE ( 'design_supplier' ) ;
#51 = CARTESIAN_POINT ( 'NONE',  ( 5.000000000000000000, 0.0000000000000000000, 0.0000000000000000000 ) ) ;
#52 = EDGE_CURVE ( 'NONE', #41, #9, #86, .T. ) ;
#53 = AXIS2_PLACEMENT_3D ( 'NONE', #51, #167, #93 ) ;
#54 = COORDINATED_UNIVERSAL_TIME_OFFSET ( 5, 0, .BEHIND. ) ;
#55 = CC_DESIGN_APPROVAL ( #69, ( #151 ) ) ;
#56 = CLOSED_SHELL ( 'NONE', ( #31, #80, #145, #107 ) ) ;
#57 = APPROVAL_ROLE ( '' ) ;
#58 = DIRECTION ( 'NONE',  ( -1.000000000000000000, -0.0000000000000000000, -0.0000000000000000000 ) ) ;
#59 = PERSON_AND_ORGANIZATION ( #71, #43 ) ;
#60 = PERSON_AND_ORGANIZATION_ROLE ( 'classification_officer' ) ;
#61 = CARTESIAN_POINT ( 'NONE',  ( 5.000000000000000000, 0.0000000000000000000, 0.0000000000000000000 ) ) ;
#62 = APPLICATION_CONTEXT ( 'configuration controlled 3d designs of mechanical parts and assemblies' ) ;
#63 = PLANE ( 'NONE',  #131 ) ;
#64 = DIRECTION ( 'NONE',  ( 1.000000000000000000, 0.0000000000000000000, 0.0000000000000000000 ) ) ;
#65 = AXIS2_PLACEMENT_3D ( 'NONE', #138, #64, #114 ) ;
#66 = APPROVAL_DATE_TIME ( #174, #119 ) ;
#67 = COORDINATED_UNIVERSAL_TIME_OFFSET ( 5, 0, .BEHIND. ) ;
#68 = PRODUCT_RELATED_PRODUCT_CATEGORY ( 'detail', '', ( #3 ) ) ;
#69 = APPROVAL ( #120, 'UNSPECIFIED' ) ;
#70 = APPLICATION_CONTEXT ( 'configuration controlled 3d designs of mechanical parts and assemblies' ) ;
#71 = PERSON ( 'UNSPECIFIED', 'UNSPECIFIED', 'UNSPECIFIED', ('UNSPECIFIED'), ('UNSPECIFIED'), ('UNSPECIFIED') ) ;
#72 = FACE_OUTER_BOUND ( 'NONE', #146, .T. ) ;
#73 = COORDINATED_UNIVERSAL_TIME_OFFSET ( 5, 0, .BEHIND. ) ;
#74 = CIRCLE ( 'NONE', #65, 37.50000000000000700 ) ;
#75 = CC_DESIGN_PERSON_AND_ORGANIZATION_ASSIGNMENT ( #76, #134, ( #151 ) ) ;
#76 = PERSON_AND_ORGANIZATION ( #71, #43 ) ;
#77 = EDGE_CURVE ( 'NONE', #41, #157, #16, .T. ) ;
#78 = APPROVAL_PERSON_ORGANIZATION ( #17, #158, #33 ) ;
#79 = ORIENTED_EDGE ( 'NONE', *, *, #123, .T. ) ;
#80 = ADVANCED_FACE ( 'NONE', ( #34 ), #162, .T. ) ;
#81 = DESIGN_CONTEXT ( 'detailed design', #70, 'design' ) ;
#82 = CC_DESIGN_PERSON_AND_ORGANIZATION_ASSIGNMENT ( #47, #122, ( #171 ) ) ;
#83 =( LENGTH_UNIT ( ) NAMED_UNIT ( * ) SI_UNIT ( .MILLI., .METRE. ) );
#84 = ORIENTED_EDGE ( 'NONE', *, *, #106, .F. ) ;
#85 = CARTESIAN_POINT ( 'NONE',  ( 0.0000000000000000000, 0.0000000000000000000, 0.0000000000000000000 ) ) ;
#86 = LINE ( 'NONE', #4, #15 ) ;
#87 = EDGE_CURVE ( 'NONE', #157, #128, #147, .T. ) ;
#88 = APPROVAL_DATE_TIME ( #110, #158 ) ;
#89 = SECURITY_CLASSIFICATION ( '', '', #97 ) ;
#90 = EDGE_LOOP ( 'NONE', ( #79, #39 ) ) ;
#91 = CALENDAR_DATE ( 2017, 1, 2 ) ;
#92 = CC_DESIGN_DATE_AND_TIME_ASSIGNMENT ( #27, #112, ( #151 ) ) ;
#93 = DIRECTION ( 'NONE',  ( 0.0000000000000000000, 0.0000000000000000000, 1.000000000000000000 ) ) ;
#94 =( NAMED_UNIT ( * ) PLANE_ANGLE_UNIT ( ) SI_UNIT ( $, .RADIAN. ) );
#95 = DIRECTION ( 'NONE',  ( -1.000000000000000000, -0.0000000000000000000, -0.0000000000000000000 ) ) ;
#96 = CIRCLE ( 'NONE', #127, 37.50000000000000700 ) ;
#97 = SECURITY_CLASSIFICATION_LEVEL ( 'unclassified' ) ;
#98 = APPLICATION_PROTOCOL_DEFINITION ( 'international standard', 'config_control_design', 1994, #62 ) ;
#99 =( NAMED_UNIT ( * ) SI_UNIT ( $, .STERADIAN. ) SOLID_ANGLE_UNIT ( ) );
#100 = CARTESIAN_POINT ( 'NONE',  ( 0.0000000000000000000, 4.592425496802575200E-015, -37.50000000000000700 ) ) ;
#101 = APPROVAL_DATE_TIME ( #104, #69 ) ;
#102 = CARTESIAN_POINT ( 'NONE',  ( 0.0000000000000000000, 0.0000000000000000000, 37.50000000000000700 ) ) ;
#103 = APPROVAL_PERSON_ORGANIZATION ( #44, #119, #57 ) ;
#104 = DATE_AND_TIME ( #117, #133 ) ;
#105 = CYLINDRICAL_SURFACE ( 'NONE', #53, 37.50000000000000700 ) ;
#106 = EDGE_CURVE ( 'NONE', #9, #128, #74, .T. ) ;
#107 = ADVANCED_FACE ( 'NONE', ( #45 ), #63, .F. ) ;
#108 = AXIS2_PLACEMENT_3D ( 'NONE', #132, #149, #22 ) ;
#109 = DIRECTION ( 'NONE',  ( 0.0000000000000000000, 0.0000000000000000000, -1.000000000000000000 ) ) ;
#110 = DATE_AND_TIME ( #91, #14 ) ;
#111 = CIRCLE ( 'NONE', #46, 37.50000000000000700 ) ;
#112 = DATE_TIME_ROLE ( 'creation_date' ) ;
#113 = PERSON_AND_ORGANIZATION ( #71, #43 ) ;
#114 = DIRECTION ( 'NONE',  ( 0.0000000000000000000, 0.0000000000000000000, -1.000000000000000000 ) ) ;
#115 = CC_DESIGN_PERSON_AND_ORGANIZATION_ASSIGNMENT ( #113, #50, ( #171 ) ) ;
#116 = EDGE_LOOP ( 'NONE', ( #141, #84 ) ) ;
#117 = CALENDAR_DATE ( 2017, 1, 2 ) ;
#118 = VECTOR ( 'NONE', #153, 1000.000000000000000 ) ;
#119 = APPROVAL ( #152, 'UNSPECIFIED' ) ;
#120 = APPROVAL_STATUS ( 'not_yet_approved' ) ;
#121 = CARTESIAN_POINT ( 'NONE',  ( 0.0000000000000000000, 0.0000000000000000000, 0.0000000000000000000 ) ) ;
#122 = PERSON_AND_ORGANIZATION_ROLE ( 'creator' ) ;
#123 = EDGE_CURVE ( 'NONE', #157, #41, #96, .T. ) ;
#124 = DATE_TIME_ROLE ( 'classification_date' ) ;
#125 = CARTESIAN_POINT ( 'NONE',  ( 5.000000000000000000, 0.0000000000000000000, 37.50000000000000700 ) ) ;
#126 = AXIS2_PLACEMENT_3D ( 'NONE', #61, #95, #150 ) ;
#127 = AXIS2_PLACEMENT_3D ( 'NONE', #10, #155, #38 ) ;
#128 = VERTEX_POINT ( 'NONE', #102 ) ;
#129 = PERSON_AND_ORGANIZATION ( #71, #43 ) ;
#130 = ORIENTED_EDGE ( 'NONE', *, *, #87, .F. ) ;
#131 = AXIS2_PLACEMENT_3D ( 'NONE', #40, #156, #170 ) ;
#132 = CARTESIAN_POINT ( 'NONE',  ( 5.000000000000000000, 0.0000000000000000000, 0.0000000000000000000 ) ) ;
#133 = LOCAL_TIME ( 11, 31, 56.00000000000000000, #175 ) ;
#134 = PERSON_AND_ORGANIZATION_ROLE ( 'creator' ) ;
#135 = CARTESIAN_POINT ( 'NONE',  ( 5.000000000000000000, 4.592425496802575200E-015, -37.50000000000000700 ) ) ;
#136 = ORIENTED_EDGE ( 'NONE', *, *, #52, .T. ) ;
#137 = CALENDAR_DATE ( 2017, 1, 2 ) ;
#138 = CARTESIAN_POINT ( 'NONE',  ( 0.0000000000000000000, 0.0000000000000000000, 0.0000000000000000000 ) ) ;
#139 = APPROVAL_PERSON_ORGANIZATION ( #2, #69, #6 ) ;
#140 = AXIS2_PLACEMENT_3D ( 'NONE', #165, #164, #109 ) ;
#141 = ORIENTED_EDGE ( 'NONE', *, *, #30, .F. ) ;
#142 = LOCAL_TIME ( 11, 31, 56.00000000000000000, #54 ) ;
#143 = CALENDAR_DATE ( 2017, 1, 2 ) ;
#144 = ORIENTED_EDGE ( 'NONE', *, *, #106, .T. ) ;
#145 = ADVANCED_FACE ( 'NONE', ( #172 ), #166, .T. ) ;
#146 = EDGE_LOOP ( 'NONE', ( #29, #136, #144, #130 ) ) ;
#147 = LINE ( 'NONE', #37, #118 ) ;
#148 =( GEOMETRIC_REPRESENTATION_CONTEXT ( 3 ) GLOBAL_UNCERTAINTY_ASSIGNED_CONTEXT ( ( #5 ) ) GLOBAL_UNIT_ASSIGNED_CONTEXT ( ( #83, #94, #99 ) ) REPRESENTATION_CONTEXT ( 'NONE', 'WORKASPACE' ) );
#149 = DIRECTION ( 'NONE',  ( 1.000000000000000000, 0.0000000000000000000, 0.0000000000000000000 ) ) ;
#150 = DIRECTION ( 'NONE',  ( 0.0000000000000000000, 0.0000000000000000000, 1.000000000000000000 ) ) ;
#151 = PRODUCT_DEFINITION ( 'UNKNOWN', '', #171, #81 ) ;
#152 = APPROVAL_STATUS ( 'not_yet_approved' ) ;
#153 = DIRECTION ( 'NONE',  ( -1.000000000000000000, -0.0000000000000000000, -0.0000000000000000000 ) ) ;
#154 = APPROVAL_STATUS ( 'not_yet_approved' ) ;
#155 = DIRECTION ( 'NONE',  ( 1.000000000000000000, 0.0000000000000000000, 0.0000000000000000000 ) ) ;
#156 = DIRECTION ( 'NONE',  ( 1.000000000000000000, 0.0000000000000000000, 0.0000000000000000000 ) ) ;
#157 = VERTEX_POINT ( 'NONE', #125 ) ;
#158 = APPROVAL ( #154, 'UNSPECIFIED' ) ;
#159 = SHAPE_DEFINITION_REPRESENTATION ( #13, #32 ) ;
#160 = ORIENTED_EDGE ( 'NONE', *, *, #87, .T. ) ;
#161 = CC_DESIGN_PERSON_AND_ORGANIZATION_ASSIGNMENT ( #59, #60, ( #89 ) ) ;
#162 = CYLINDRICAL_SURFACE ( 'NONE', #126, 37.50000000000000700 ) ;
#163 = CC_DESIGN_APPROVAL ( #158, ( #171 ) ) ;
#164 = DIRECTION ( 'NONE',  ( 1.000000000000000000, 0.0000000000000000000, 0.0000000000000000000 ) ) ;
#165 = CARTESIAN_POINT ( 'NONE',  ( 5.000000000000000000, 0.0000000000000000000, 0.0000000000000000000 ) ) ;
#166 = PLANE ( 'NONE',  #140 ) ;
#167 = DIRECTION ( 'NONE',  ( -1.000000000000000000, -0.0000000000000000000, -0.0000000000000000000 ) ) ;
#168 = ORIENTED_EDGE ( 'NONE', *, *, #123, .F. ) ;
#169 = CALENDAR_DATE ( 2017, 1, 2 ) ;
#170 = DIRECTION ( 'NONE',  ( 0.0000000000000000000, 0.0000000000000000000, -1.000000000000000000 ) ) ;
#171 = PRODUCT_DEFINITION_FORMATION_WITH_SPECIFIED_SOURCE ( 'ANY', '', #3, .NOT_KNOWN. ) ;
#172 = FACE_OUTER_BOUND ( 'NONE', #90, .T. ) ;
#173 = CC_DESIGN_APPROVAL ( #119, ( #89 ) ) ;
#174 = DATE_AND_TIME ( #143, #142 ) ;
#175 = COORDINATED_UNIVERSAL_TIME_OFFSET ( 5, 0, .BEHIND. ) ;
ENDSEC;
END-ISO-10303-21;
