ISO-10303-21;
HEADER;
FILE_DESCRIPTION (( 'STEP AP203' ),
    '1' );
FILE_NAME ('Web Model 83357.STEP',
    '2017-02-01T15:19:39',
    ( '' ),
    ( '' ),
    'SwSTEP 2.0',
    'SolidWorks 2016',
    '' );
FILE_SCHEMA (( 'CONFIG_CONTROL_DESIGN' ));
ENDSEC;

DATA;
#1 =( GEOMETRIC_REPRESENTATION_CONTEXT ( 3 ) GLOBAL_UNCERTAINTY_ASSIGNED_CONTEXT ( ( #126 ) ) GLOBAL_UNIT_ASSIGNED_CONTEXT ( ( #35, #134, #108 ) ) REPRESENTATION_CONTEXT ( 'NONE', 'WORKASPACE' ) );
#2 = AXIS2_PLACEMENT_3D ( 'NONE', #145, #104, #65 ) ;
#3 = ORIENTED_EDGE ( 'NONE', *, *, #56, .F. ) ;
#4 = COORDINATED_UNIVERSAL_TIME_OFFSET ( 5, 0, .BEHIND. ) ;
#5 = CALENDAR_DATE ( 2017, 1, 2 ) ;
#6 = CARTESIAN_POINT ( 'NONE',  ( 1.000000000000000000, 0.0000000000000000000, 0.0000000000000000000 ) ) ;
#7 = DIRECTION ( 'NONE',  ( 0.0000000000000000000, 0.0000000000000000000, -1.000000000000000000 ) ) ;
#8 = CC_DESIGN_APPROVAL ( #16, ( #169 ) ) ;
#9 = APPLICATION_CONTEXT ( 'configuration controlled 3d designs of mechanical parts and assemblies' ) ;
#10 = PERSON_AND_ORGANIZATION ( #152, #112 ) ;
#11 = PERSON_AND_ORGANIZATION ( #152, #112 ) ;
#12 = APPROVAL_STATUS ( 'not_yet_approved' ) ;
#13 = CC_DESIGN_APPROVAL ( #49, ( #174 ) ) ;
#14 = CARTESIAN_POINT ( 'NONE',  ( 1.000000000000000000, 0.0000000000000000000, 0.0000000000000000000 ) ) ;
#15 = DIRECTION ( 'NONE',  ( 0.0000000000000000000, 0.0000000000000000000, -1.000000000000000000 ) ) ;
#16 = APPROVAL ( #12, 'UNSPECIFIED' ) ;
#17 = APPLICATION_CONTEXT ( 'configuration controlled 3d designs of mechanical parts and assemblies' ) ;
#18 = AXIS2_PLACEMENT_3D ( 'NONE', #14, #79, #7 ) ;
#19 = CIRCLE ( 'NONE', #167, 25.00000000000000000 ) ;
#20 = ORIENTED_EDGE ( 'NONE', *, *, #116, .F. ) ;
#21 = APPROVAL_STATUS ( 'not_yet_approved' ) ;
#22 = PRODUCT ( 'Web Model 83357', 'Web Model 83357', '', ( #175 ) ) ;
#23 = ORIENTED_EDGE ( 'NONE', *, *, #116, .T. ) ;
#24 = CC_DESIGN_APPROVAL ( #64, ( #131 ) ) ;
#25 = PERSON_AND_ORGANIZATION_ROLE ( 'creator' ) ;
#26 = APPROVAL_PERSON_ORGANIZATION ( #153, #16, #114 ) ;
#27 = CARTESIAN_POINT ( 'NONE',  ( 0.0000000000000000000, 0.0000000000000000000, 25.00000000000000000 ) ) ;
#28 = ORIENTED_EDGE ( 'NONE', *, *, #168, .F. ) ;
#29 = DIRECTION ( 'NONE',  ( -1.000000000000000000, -0.0000000000000000000, -0.0000000000000000000 ) ) ;
#30 = COORDINATED_UNIVERSAL_TIME_OFFSET ( 5, 0, .BEHIND. ) ;
#31 = CARTESIAN_POINT ( 'NONE',  ( 1.000000000000000000, 0.0000000000000000000, 25.00000000000000000 ) ) ;
#32 = ORIENTED_EDGE ( 'NONE', *, *, #38, .T. ) ;
#33 = DIRECTION ( 'NONE',  ( -1.000000000000000000, -0.0000000000000000000, -0.0000000000000000000 ) ) ;
#34 = DIRECTION ( 'NONE',  ( 0.0000000000000000000, 0.0000000000000000000, -1.000000000000000000 ) ) ;
#35 =( LENGTH_UNIT ( ) NAMED_UNIT ( * ) SI_UNIT ( .MILLI., .METRE. ) );
#36 = VECTOR ( 'NONE', #120, 1000.000000000000000 ) ;
#37 = CIRCLE ( 'NONE', #18, 25.00000000000000000 ) ;
#38 = EDGE_CURVE ( 'NONE', #159, #91, #60, .T. ) ;
#39 = COORDINATED_UNIVERSAL_TIME_OFFSET ( 5, 0, .BEHIND. ) ;
#40 = DATE_TIME_ROLE ( 'creation_date' ) ;
#41 = ORIENTED_EDGE ( 'NONE', *, *, #138, .T. ) ;
#42 = CC_DESIGN_PERSON_AND_ORGANIZATION_ASSIGNMENT ( #151, #164, ( #169 ) ) ;
#43 = APPROVAL_DATE_TIME ( #137, #16 ) ;
#44 = CARTESIAN_POINT ( 'NONE',  ( 0.0000000000000000000, 0.0000000000000000000, 0.0000000000000000000 ) ) ;
#45 = PERSON_AND_ORGANIZATION ( #152, #112 ) ;
#46 = AXIS2_PLACEMENT_3D ( 'NONE', #119, #63, #59 ) ;
#47 = FACE_OUTER_BOUND ( 'NONE', #74, .T. ) ;
#48 = DIRECTION ( 'NONE',  ( 1.000000000000000000, 0.0000000000000000000, 0.0000000000000000000 ) ) ;
#49 = APPROVAL ( #86, 'UNSPECIFIED' ) ;
#50 = EDGE_LOOP ( 'NONE', ( #3, #156, #69, #32 ) ) ;
#51 = CC_DESIGN_PERSON_AND_ORGANIZATION_ASSIGNMENT ( #11, #52, ( #174 ) ) ;
#52 = PERSON_AND_ORGANIZATION_ROLE ( 'design_supplier' ) ;
#53 = ORIENTED_EDGE ( 'NONE', *, *, #56, .T. ) ;
#54 = AXIS2_PLACEMENT_3D ( 'NONE', #44, #122, #34 ) ;
#55 = PERSON_AND_ORGANIZATION ( #152, #112 ) ;
#56 = EDGE_CURVE ( 'NONE', #90, #91, #170, .T. ) ;
#57 = ORIENTED_EDGE ( 'NONE', *, *, #107, .F. ) ;
#58 = CC_DESIGN_DATE_AND_TIME_ASSIGNMENT ( #72, #97, ( #131 ) ) ;
#59 = DIRECTION ( 'NONE',  ( 0.0000000000000000000, 0.0000000000000000000, -1.000000000000000000 ) ) ;
#60 = CIRCLE ( 'NONE', #2, 25.00000000000000000 ) ;
#61 = PLANE ( 'NONE',  #139 ) ;
#62 = ADVANCED_FACE ( 'NONE', ( #148 ), #61, .T. ) ;
#63 = DIRECTION ( 'NONE',  ( 1.000000000000000000, 0.0000000000000000000, 0.0000000000000000000 ) ) ;
#64 = APPROVAL ( #21, 'UNSPECIFIED' ) ;
#65 = DIRECTION ( 'NONE',  ( 0.0000000000000000000, 0.0000000000000000000, -1.000000000000000000 ) ) ;
#66 = CARTESIAN_POINT ( 'NONE',  ( 0.0000000000000000000, 0.0000000000000000000, 0.0000000000000000000 ) ) ;
#67 = LOCAL_TIME ( 10, 19, 39.00000000000000000, #84 ) ;
#68 = CC_DESIGN_PERSON_AND_ORGANIZATION_ASSIGNMENT ( #55, #71, ( #131 ) ) ;
#69 = ORIENTED_EDGE ( 'NONE', *, *, #168, .T. ) ;
#70 = CALENDAR_DATE ( 2017, 1, 2 ) ;
#71 = PERSON_AND_ORGANIZATION_ROLE ( 'classification_officer' ) ;
#72 = DATE_AND_TIME ( #5, #166 ) ;
#73 = PERSON_AND_ORGANIZATION ( #152, #112 ) ;
#74 = EDGE_LOOP ( 'NONE', ( #82, #20 ) ) ;
#75 = LOCAL_TIME ( 10, 19, 39.00000000000000000, #30 ) ;
#76 = FACE_OUTER_BOUND ( 'NONE', #50, .T. ) ;
#77 = DIRECTION ( 'NONE',  ( 0.0000000000000000000, 0.0000000000000000000, 1.000000000000000000 ) ) ;
#78 = PRODUCT_RELATED_PRODUCT_CATEGORY ( 'detail', '', ( #22 ) ) ;
#79 = DIRECTION ( 'NONE',  ( 1.000000000000000000, 0.0000000000000000000, 0.0000000000000000000 ) ) ;
#80 = COORDINATED_UNIVERSAL_TIME_OFFSET ( 5, 0, .BEHIND. ) ;
#81 = ADVANCED_BREP_SHAPE_REPRESENTATION ( 'Web Model 83357', ( #141, #161 ), #1 ) ;
#82 = ORIENTED_EDGE ( 'NONE', *, *, #38, .F. ) ;
#83 = CALENDAR_DATE ( 2017, 1, 2 ) ;
#84 = COORDINATED_UNIVERSAL_TIME_OFFSET ( 5, 0, .BEHIND. ) ;
#85 = CYLINDRICAL_SURFACE ( 'NONE', #146, 25.00000000000000000 ) ;
#86 = APPROVAL_STATUS ( 'not_yet_approved' ) ;
#87 = ORIENTED_EDGE ( 'NONE', *, *, #107, .T. ) ;
#88 = CARTESIAN_POINT ( 'NONE',  ( 1.000000000000000000, 0.0000000000000000000, 25.00000000000000000 ) ) ;
#89 = ADVANCED_FACE ( 'NONE', ( #76 ), #99, .T. ) ;
#90 = VERTEX_POINT ( 'NONE', #103 ) ;
#91 = VERTEX_POINT ( 'NONE', #132 ) ;
#92 = CARTESIAN_POINT ( 'NONE',  ( 1.000000000000000000, 0.0000000000000000000, 0.0000000000000000000 ) ) ;
#93 = DIRECTION ( 'NONE',  ( 1.000000000000000000, 0.0000000000000000000, 0.0000000000000000000 ) ) ;
#94 = PERSON_AND_ORGANIZATION_ROLE ( 'design_owner' ) ;
#95 = APPROVAL_DATE_TIME ( #163, #49 ) ;
#96 = FACE_OUTER_BOUND ( 'NONE', #124, .T. ) ;
#97 = DATE_TIME_ROLE ( 'classification_date' ) ;
#98 = APPROVAL_ROLE ( '' ) ;
#99 = CYLINDRICAL_SURFACE ( 'NONE', #157, 25.00000000000000000 ) ;
#100 = SECURITY_CLASSIFICATION_LEVEL ( 'unclassified' ) ;
#101 = PRODUCT_DEFINITION_SHAPE ( 'NONE', 'NONE',  #169 ) ;
#102 = VERTEX_POINT ( 'NONE', #31 ) ;
#103 = CARTESIAN_POINT ( 'NONE',  ( 1.000000000000000000, 3.061616997868383000E-015, -25.00000000000000000 ) ) ;
#104 = DIRECTION ( 'NONE',  ( 1.000000000000000000, 0.0000000000000000000, 0.0000000000000000000 ) ) ;
#105 = CC_DESIGN_SECURITY_CLASSIFICATION ( #131, ( #174 ) ) ;
#106 = CARTESIAN_POINT ( 'NONE',  ( 1.000000000000000000, 0.0000000000000000000, 0.0000000000000000000 ) ) ;
#107 = EDGE_CURVE ( 'NONE', #90, #102, #37, .T. ) ;
#108 =( NAMED_UNIT ( * ) SI_UNIT ( $, .STERADIAN. ) SOLID_ANGLE_UNIT ( ) );
#109 = APPLICATION_PROTOCOL_DEFINITION ( 'international standard', 'config_control_design', 1994, #17 ) ;
#110 = CALENDAR_DATE ( 2017, 1, 2 ) ;
#111 = APPROVAL_DATE_TIME ( #127, #64 ) ;
#112 = ORGANIZATION ( 'UNSPECIFIED', 'UNSPECIFIED', '' ) ;
#113 = VECTOR ( 'NONE', #29, 1000.000000000000000 ) ;
#114 = APPROVAL_ROLE ( '' ) ;
#115 = DATE_AND_TIME ( #110, #140 ) ;
#116 = EDGE_CURVE ( 'NONE', #91, #159, #19, .T. ) ;
#117 = CC_DESIGN_DATE_AND_TIME_ASSIGNMENT ( #115, #40, ( #169 ) ) ;
#118 = PLANE ( 'NONE',  #54 ) ;
#119 = CARTESIAN_POINT ( 'NONE',  ( 1.000000000000000000, 0.0000000000000000000, 0.0000000000000000000 ) ) ;
#120 = DIRECTION ( 'NONE',  ( -1.000000000000000000, -0.0000000000000000000, -0.0000000000000000000 ) ) ;
#121 = APPLICATION_PROTOCOL_DEFINITION ( 'international standard', 'config_control_design', 1994, #9 ) ;
#122 = DIRECTION ( 'NONE',  ( 1.000000000000000000, 0.0000000000000000000, 0.0000000000000000000 ) ) ;
#123 = LOCAL_TIME ( 10, 19, 39.00000000000000000, #80 ) ;
#124 = EDGE_LOOP ( 'NONE', ( #57, #53, #23, #28 ) ) ;
#125 = APPROVAL_ROLE ( '' ) ;
#126 = UNCERTAINTY_MEASURE_WITH_UNIT (LENGTH_MEASURE( 1.000000000000000100E-005 ), #35, 'distance_accuracy_value', 'NONE');
#127 = DATE_AND_TIME ( #70, #75 ) ;
#128 = DIRECTION ( 'NONE',  ( 0.0000000000000000000, 0.0000000000000000000, -1.000000000000000000 ) ) ;
#129 = DESIGN_CONTEXT ( 'detailed design', #9, 'design' ) ;
#130 = CIRCLE ( 'NONE', #46, 25.00000000000000000 ) ;
#131 = SECURITY_CLASSIFICATION ( '', '', #100 ) ;
#132 = CARTESIAN_POINT ( 'NONE',  ( 0.0000000000000000000, 3.061616997868383000E-015, -25.00000000000000000 ) ) ;
#133 = DIRECTION ( 'NONE',  ( 0.0000000000000000000, 0.0000000000000000000, 1.000000000000000000 ) ) ;
#134 =( NAMED_UNIT ( * ) PLANE_ANGLE_UNIT ( ) SI_UNIT ( $, .RADIAN. ) );
#135 = CLOSED_SHELL ( 'NONE', ( #154, #89, #62, #172 ) ) ;
#136 = CALENDAR_DATE ( 2017, 1, 2 ) ;
#137 = DATE_AND_TIME ( #83, #123 ) ;
#138 = EDGE_CURVE ( 'NONE', #102, #90, #130, .T. ) ;
#139 = AXIS2_PLACEMENT_3D ( 'NONE', #6, #155, #15 ) ;
#140 = LOCAL_TIME ( 10, 19, 39.00000000000000000, #4 ) ;
#141 = MANIFOLD_SOLID_BREP ( 'Extrude1', #135 ) ;
#142 = DIRECTION ( 'NONE',  ( -1.000000000000000000, -0.0000000000000000000, -0.0000000000000000000 ) ) ;
#143 = CARTESIAN_POINT ( 'NONE',  ( 0.0000000000000000000, 0.0000000000000000000, 0.0000000000000000000 ) ) ;
#144 = EDGE_LOOP ( 'NONE', ( #41, #87 ) ) ;
#145 = CARTESIAN_POINT ( 'NONE',  ( 0.0000000000000000000, 0.0000000000000000000, 0.0000000000000000000 ) ) ;
#146 = AXIS2_PLACEMENT_3D ( 'NONE', #106, #33, #173 ) ;
#147 = APPROVAL_PERSON_ORGANIZATION ( #160, #64, #98 ) ;
#148 = FACE_OUTER_BOUND ( 'NONE', #144, .T. ) ;
#149 = CC_DESIGN_PERSON_AND_ORGANIZATION_ASSIGNMENT ( #45, #25, ( #174 ) ) ;
#150 = APPROVAL_PERSON_ORGANIZATION ( #73, #49, #125 ) ;
#151 = PERSON_AND_ORGANIZATION ( #152, #112 ) ;
#152 = PERSON ( 'UNSPECIFIED', 'UNSPECIFIED', 'UNSPECIFIED', ('UNSPECIFIED'), ('UNSPECIFIED'), ('UNSPECIFIED') ) ;
#153 = PERSON_AND_ORGANIZATION ( #152, #112 ) ;
#154 = ADVANCED_FACE ( 'NONE', ( #96 ), #85, .T. ) ;
#155 = DIRECTION ( 'NONE',  ( 1.000000000000000000, 0.0000000000000000000, 0.0000000000000000000 ) ) ;
#156 = ORIENTED_EDGE ( 'NONE', *, *, #138, .F. ) ;
#157 = AXIS2_PLACEMENT_3D ( 'NONE', #92, #142, #77 ) ;
#158 = CC_DESIGN_PERSON_AND_ORGANIZATION_ASSIGNMENT ( #10, #94, ( #22 ) ) ;
#159 = VERTEX_POINT ( 'NONE', #27 ) ;
#160 = PERSON_AND_ORGANIZATION ( #152, #112 ) ;
#161 = AXIS2_PLACEMENT_3D ( 'NONE', #66, #133, #48 ) ;
#162 = SHAPE_DEFINITION_REPRESENTATION ( #101, #81 ) ;
#163 = DATE_AND_TIME ( #136, #67 ) ;
#164 = PERSON_AND_ORGANIZATION_ROLE ( 'creator' ) ;
#165 = LINE ( 'NONE', #88, #113 ) ;
#166 = LOCAL_TIME ( 10, 19, 39.00000000000000000, #39 ) ;
#167 = AXIS2_PLACEMENT_3D ( 'NONE', #143, #93, #128 ) ;
#168 = EDGE_CURVE ( 'NONE', #102, #159, #165, .T. ) ;
#169 = PRODUCT_DEFINITION ( 'UNKNOWN', '', #174, #129 ) ;
#170 = LINE ( 'NONE', #171, #36 ) ;
#171 = CARTESIAN_POINT ( 'NONE',  ( 1.000000000000000000, 3.061616997868383000E-015, -25.00000000000000000 ) ) ;
#172 = ADVANCED_FACE ( 'NONE', ( #47 ), #118, .F. ) ;
#173 = DIRECTION ( 'NONE',  ( 0.0000000000000000000, 0.0000000000000000000, 1.000000000000000000 ) ) ;
#174 = PRODUCT_DEFINITION_FORMATION_WITH_SPECIFIED_SOURCE ( 'ANY', '', #22, .NOT_KNOWN. ) ;
#175 = MECHANICAL_CONTEXT ( 'NONE', #17, 'mechanical' ) ;
ENDSEC;
END-ISO-10303-21;
