ISO-10303-21;
HEADER;
FILE_DESCRIPTION (( 'STEP AP203' ),
    '1' );
FILE_NAME ('Web Model 19837_19838.step',
    '2022-01-27T20:32:14',
    ( '' ),
    ( '' ),
    'SwSTEP 2.0',
    'SolidWorks 2021',
    '' );
FILE_SCHEMA (( 'CONFIG_CONTROL_DESIGN' ));
ENDSEC;

DATA;
#1 = APPROVAL_PERSON_ORGANIZATION ( #153, #62, #154 ) ;
#2 = APPROVAL_STATUS ( 'not_yet_approved' ) ;
#3 = PERSON_AND_ORGANIZATION_ROLE ( 'creator' ) ;
#4 = CIRCLE ( 'NONE', #150, 12.50000000000000000 ) ;
#5 = PERSON_AND_ORGANIZATION_ROLE ( 'classification_officer' ) ;
#6 = ADVANCED_BREP_SHAPE_REPRESENTATION ( 'Web Model 19837_19838', ( #133, #78 ), #56 ) ;
#7 = PERSON_AND_ORGANIZATION ( #104, #52 ) ;
#8 = CC_DESIGN_DATE_AND_TIME_ASSIGNMENT ( #141, #21, ( #44 ) ) ;
#9 = DIRECTION ( 'NONE',  ( 1.000000000000000000, 0.000000000000000000, 0.000000000000000000 ) ) ;
#10 = CARTESIAN_POINT ( 'NONE',  ( 0.000000000000000000, 0.000000000000000000, 3.000000000000000000 ) ) ;
#11 = APPLICATION_CONTEXT ( 'configuration controlled 3d designs of mechanical parts and assemblies' ) ;
#12 = ORIENTED_EDGE ( 'NONE', *, *, #162, .F. ) ;
#13 = AXIS2_PLACEMENT_3D ( 'NONE', #111, #59, #159 ) ;
#14 = CARTESIAN_POINT ( 'NONE',  ( -12.50000000000000000, 0.000000000000000000, 3.000000000000000000 ) ) ;
#15 = ORIENTED_EDGE ( 'NONE', *, *, #165, .F. ) ;
#16 = ORIENTED_EDGE ( 'NONE', *, *, #101, .F. ) ;
#17 = CARTESIAN_POINT ( 'NONE',  ( 0.000000000000000000, 0.000000000000000000, 0.000000000000000000 ) ) ;
#18 = LOCAL_TIME ( 15, 32, 14.00000000000000000, #112 ) ;
#19 = APPROVAL_STATUS ( 'not_yet_approved' ) ;
#20 = APPLICATION_CONTEXT ( 'configuration controlled 3d designs of mechanical parts and assemblies' ) ;
#21 = DATE_TIME_ROLE ( 'classification_date' ) ;
#22 = PRODUCT_RELATED_PRODUCT_CATEGORY ( 'detail', '', ( #34 ) ) ;
#23 = APPROVAL_DATE_TIME ( #175, #25 ) ;
#24 = CARTESIAN_POINT ( 'NONE',  ( 0.000000000000000000, 0.000000000000000000, 3.000000000000000000 ) ) ;
#25 = APPROVAL ( #81, 'UNSPECIFIED' ) ;
#26 = LINE ( 'NONE', #73, #49 ) ;
#27 = LOCAL_TIME ( 15, 32, 14.00000000000000000, #76 ) ;
#28 = VERTEX_POINT ( 'NONE', #161 ) ;
#29 = DIRECTION ( 'NONE',  ( 0.000000000000000000, 0.000000000000000000, 1.000000000000000000 ) ) ;
#30 = AXIS2_PLACEMENT_3D ( 'NONE', #122, #31, #138 ) ;
#31 = DIRECTION ( 'NONE',  ( -0.000000000000000000, -0.000000000000000000, -1.000000000000000000 ) ) ;
#32 = VERTEX_POINT ( 'NONE', #14 ) ;
#33 = DIRECTION ( 'NONE',  ( 1.000000000000000000, 0.000000000000000000, 0.000000000000000000 ) ) ;
#34 = PRODUCT ( 'Web Model 19837_19838', 'Web Model 19837_19838', '', ( #127 ) ) ;
#35 = DATE_AND_TIME ( #92, #18 ) ;
#36 = CALENDAR_DATE ( 2022, 27, 1 ) ;
#37 = DIRECTION ( 'NONE',  ( 1.000000000000000000, 0.000000000000000000, 0.000000000000000000 ) ) ;
#38 = APPROVAL_DATE_TIME ( #64, #87 ) ;
#39 = PRODUCT_DEFINITION_FORMATION_WITH_SPECIFIED_SOURCE ( 'ANY', '', #34, .NOT_KNOWN. ) ;
#40 = CARTESIAN_POINT ( 'NONE',  ( 12.50000000000000000, 1.530808498934191521E-15, 0.000000000000000000 ) ) ;
#41 = AXIS2_PLACEMENT_3D ( 'NONE', #10, #131, #9 ) ;
#42 = FACE_OUTER_BOUND ( 'NONE', #86, .T. ) ;
#43 = CC_DESIGN_PERSON_AND_ORGANIZATION_ASSIGNMENT ( #65, #155, ( #39 ) ) ;
#44 = SECURITY_CLASSIFICATION ( '', '', #129 ) ;
#45 = CARTESIAN_POINT ( 'NONE',  ( 0.000000000000000000, 0.000000000000000000, 0.000000000000000000 ) ) ;
#46 = VERTEX_POINT ( 'NONE', #146 ) ;
#47 = FACE_OUTER_BOUND ( 'NONE', #110, .T. ) ;
#48 = PERSON_AND_ORGANIZATION_ROLE ( 'creator' ) ;
#49 = VECTOR ( 'NONE', #149, 1000.000000000000000 ) ;
#50 = COORDINATED_UNIVERSAL_TIME_OFFSET ( 5, 0, .BEHIND. ) ;
#51 = CARTESIAN_POINT ( 'NONE',  ( 0.000000000000000000, 0.000000000000000000, 0.000000000000000000 ) ) ;
#52 = ORGANIZATION ( 'UNSPECIFIED', 'UNSPECIFIED', '' ) ;
#53 = DIRECTION ( 'NONE',  ( -0.000000000000000000, -0.000000000000000000, -1.000000000000000000 ) ) ;
#54 = ADVANCED_FACE ( 'NONE', ( #70 ), #74, .F. ) ;
#55 = DIRECTION ( 'NONE',  ( -0.000000000000000000, -0.000000000000000000, -1.000000000000000000 ) ) ;
#56 =( GEOMETRIC_REPRESENTATION_CONTEXT ( 3 ) GLOBAL_UNCERTAINTY_ASSIGNED_CONTEXT ( ( #120 ) ) GLOBAL_UNIT_ASSIGNED_CONTEXT ( ( #142, #117, #168 ) ) REPRESENTATION_CONTEXT ( 'NONE', 'WORKASPACE' ) );
#57 = EDGE_CURVE ( 'NONE', #32, #46, #4, .T. ) ;
#58 = DESIGN_CONTEXT ( 'detailed design', #20, 'design' ) ;
#59 = DIRECTION ( 'NONE',  ( 0.000000000000000000, 0.000000000000000000, 1.000000000000000000 ) ) ;
#60 = DIRECTION ( 'NONE',  ( 1.000000000000000000, 0.000000000000000000, -0.000000000000000000 ) ) ;
#61 = DIRECTION ( 'NONE',  ( 1.000000000000000000, 0.000000000000000000, 0.000000000000000000 ) ) ;
#62 = APPROVAL ( #19, 'UNSPECIFIED' ) ;
#63 = APPLICATION_PROTOCOL_DEFINITION ( 'international standard', 'config_control_design', 1994, #20 ) ;
#64 = DATE_AND_TIME ( #130, #170 ) ;
#65 = PERSON_AND_ORGANIZATION ( #104, #52 ) ;
#66 = DATE_AND_TIME ( #36, #107 ) ;
#67 = APPROVAL_ROLE ( '' ) ;
#68 = CC_DESIGN_PERSON_AND_ORGANIZATION_ASSIGNMENT ( #7, #5, ( #44 ) ) ;
#69 = ORIENTED_EDGE ( 'NONE', *, *, #72, .F. ) ;
#70 = FACE_OUTER_BOUND ( 'NONE', #100, .T. ) ;
#71 = CLOSED_SHELL ( 'NONE', ( #113, #144, #121, #54 ) ) ;
#72 = EDGE_CURVE ( 'NONE', #134, #28, #119, .T. ) ;
#73 = CARTESIAN_POINT ( 'NONE',  ( 12.50000000000000000, 1.530808498934191521E-15, 3.000000000000000000 ) ) ;
#74 = PLANE ( 'NONE',  #158 ) ;
#75 = CC_DESIGN_PERSON_AND_ORGANIZATION_ASSIGNMENT ( #140, #3, ( #39 ) ) ;
#76 = COORDINATED_UNIVERSAL_TIME_OFFSET ( 5, 0, .BEHIND. ) ;
#77 = PERSON_AND_ORGANIZATION_ROLE ( 'design_owner' ) ;
#78 = AXIS2_PLACEMENT_3D ( 'NONE', #17, #116, #37 ) ;
#79 = CC_DESIGN_SECURITY_CLASSIFICATION ( #44, ( #39 ) ) ;
#80 = DATE_TIME_ROLE ( 'creation_date' ) ;
#81 = APPROVAL_STATUS ( 'not_yet_approved' ) ;
#82 = DIRECTION ( 'NONE',  ( -1.000000000000000000, 0.000000000000000000, 0.000000000000000000 ) ) ;
#83 = APPROVAL_PERSON_ORGANIZATION ( #126, #87, #91 ) ;
#84 = LINE ( 'NONE', #135, #167 ) ;
#85 = CYLINDRICAL_SURFACE ( 'NONE', #30, 12.50000000000000000 ) ;
#86 = EDGE_LOOP ( 'NONE', ( #16, #99, #164, #151 ) ) ;
#87 = APPROVAL ( #2, 'UNSPECIFIED' ) ;
#88 = PERSON_AND_ORGANIZATION ( #104, #52 ) ;
#89 = PRODUCT_DEFINITION_SHAPE ( 'NONE', 'NONE',  #106 ) ;
#90 = APPROVAL_DATE_TIME ( #66, #62 ) ;
#91 = APPROVAL_ROLE ( '' ) ;
#92 = CALENDAR_DATE ( 2022, 27, 1 ) ;
#93 = CC_DESIGN_PERSON_AND_ORGANIZATION_ASSIGNMENT ( #156, #48, ( #106 ) ) ;
#94 = CYLINDRICAL_SURFACE ( 'NONE', #128, 12.50000000000000000 ) ;
#95 = DIRECTION ( 'NONE',  ( 0.000000000000000000, 0.000000000000000000, 1.000000000000000000 ) ) ;
#96 = ORIENTED_EDGE ( 'NONE', *, *, #101, .T. ) ;
#97 = DIRECTION ( 'NONE',  ( 0.000000000000000000, 0.000000000000000000, 1.000000000000000000 ) ) ;
#98 = CC_DESIGN_DATE_AND_TIME_ASSIGNMENT ( #35, #80, ( #106 ) ) ;
#99 = ORIENTED_EDGE ( 'NONE', *, *, #57, .F. ) ;
#100 = EDGE_LOOP ( 'NONE', ( #15, #69 ) ) ;
#101 = EDGE_CURVE ( 'NONE', #46, #134, #26, .T. ) ;
#102 = APPLICATION_PROTOCOL_DEFINITION ( 'international standard', 'config_control_design', 1994, #11 ) ;
#103 = CALENDAR_DATE ( 2022, 27, 1 ) ;
#104 = PERSON ( 'UNSPECIFIED', 'UNSPECIFIED', 'UNSPECIFIED', ('UNSPECIFIED'), ('UNSPECIFIED'), ('UNSPECIFIED') ) ;
#105 = DIRECTION ( 'NONE',  ( 0.000000000000000000, 0.000000000000000000, 1.000000000000000000 ) ) ;
#106 = PRODUCT_DEFINITION ( 'UNKNOWN', '', #39, #58 ) ;
#107 = LOCAL_TIME ( 15, 32, 14.00000000000000000, #169 ) ;
#108 = AXIS2_PLACEMENT_3D ( 'NONE', #51, #105, #157 ) ;
#109 = FACE_OUTER_BOUND ( 'NONE', #173, .T. ) ;
#110 = EDGE_LOOP ( 'NONE', ( #12, #96, #147, #163 ) ) ;
#111 = CARTESIAN_POINT ( 'NONE',  ( 0.000000000000000000, 0.000000000000000000, 3.000000000000000000 ) ) ;
#112 = COORDINATED_UNIVERSAL_TIME_OFFSET ( 5, 0, .BEHIND. ) ;
#113 = ADVANCED_FACE ( 'NONE', ( #47 ), #85, .T. ) ;
#114 = AXIS2_PLACEMENT_3D ( 'NONE', #123, #97, #61 ) ;
#115 = COORDINATED_UNIVERSAL_TIME_OFFSET ( 5, 0, .BEHIND. ) ;
#116 = DIRECTION ( 'NONE',  ( 0.000000000000000000, 0.000000000000000000, 1.000000000000000000 ) ) ;
#117 =( NAMED_UNIT ( * ) PLANE_ANGLE_UNIT ( ) SI_UNIT ( $, .RADIAN. ) );
#118 = CC_DESIGN_APPROVAL ( #62, ( #39 ) ) ;
#119 = CIRCLE ( 'NONE', #114, 12.50000000000000000 ) ;
#120 = UNCERTAINTY_MEASURE_WITH_UNIT (LENGTH_MEASURE( 1.000000000000000082E-05 ), #142, 'distance_accuracy_value', 'NONE');
#121 = ADVANCED_FACE ( 'NONE', ( #109 ), #152, .T. ) ;
#122 = CARTESIAN_POINT ( 'NONE',  ( 0.000000000000000000, 0.000000000000000000, 3.000000000000000000 ) ) ;
#123 = CARTESIAN_POINT ( 'NONE',  ( 0.000000000000000000, 0.000000000000000000, 0.000000000000000000 ) ) ;
#124 = CARTESIAN_POINT ( 'NONE',  ( 0.000000000000000000, 0.000000000000000000, 3.000000000000000000 ) ) ;
#125 = CALENDAR_DATE ( 2022, 27, 1 ) ;
#126 = PERSON_AND_ORGANIZATION ( #104, #52 ) ;
#127 = MECHANICAL_CONTEXT ( 'NONE', #11, 'mechanical' ) ;
#128 = AXIS2_PLACEMENT_3D ( 'NONE', #24, #53, #82 ) ;
#129 = SECURITY_CLASSIFICATION_LEVEL ( 'unclassified' ) ;
#130 = CALENDAR_DATE ( 2022, 27, 1 ) ;
#131 = DIRECTION ( 'NONE',  ( 0.000000000000000000, 0.000000000000000000, 1.000000000000000000 ) ) ;
#132 = EDGE_CURVE ( 'NONE', #32, #28, #84, .T. ) ;
#133 = MANIFOLD_SOLID_BREP ( 'Boss-Extrude1', #71 ) ;
#134 = VERTEX_POINT ( 'NONE', #40 ) ;
#135 = CARTESIAN_POINT ( 'NONE',  ( -12.50000000000000000, 0.000000000000000000, 3.000000000000000000 ) ) ;
#136 = ORIENTED_EDGE ( 'NONE', *, *, #162, .T. ) ;
#137 = CIRCLE ( 'NONE', #108, 12.50000000000000000 ) ;
#138 = DIRECTION ( 'NONE',  ( -1.000000000000000000, 0.000000000000000000, 0.000000000000000000 ) ) ;
#139 = LOCAL_TIME ( 15, 32, 14.00000000000000000, #50 ) ;
#140 = PERSON_AND_ORGANIZATION ( #104, #52 ) ;
#141 = DATE_AND_TIME ( #103, #139 ) ;
#142 =( LENGTH_UNIT ( ) NAMED_UNIT ( * ) SI_UNIT ( .MILLI., .METRE. ) );
#143 = SHAPE_DEFINITION_REPRESENTATION ( #89, #6 ) ;
#144 = ADVANCED_FACE ( 'NONE', ( #42 ), #94, .T. ) ;
#145 = CC_DESIGN_PERSON_AND_ORGANIZATION_ASSIGNMENT ( #166, #77, ( #34 ) ) ;
#146 = CARTESIAN_POINT ( 'NONE',  ( 12.50000000000000000, 1.530808498934191521E-15, 3.000000000000000000 ) ) ;
#147 = ORIENTED_EDGE ( 'NONE', *, *, #72, .T. ) ;
#148 = CC_DESIGN_APPROVAL ( #25, ( #44 ) ) ;
#149 = DIRECTION ( 'NONE',  ( -0.000000000000000000, -0.000000000000000000, -1.000000000000000000 ) ) ;
#150 = AXIS2_PLACEMENT_3D ( 'NONE', #124, #95, #33 ) ;
#151 = ORIENTED_EDGE ( 'NONE', *, *, #165, .T. ) ;
#152 = PLANE ( 'NONE',  #13 ) ;
#153 = PERSON_AND_ORGANIZATION ( #104, #52 ) ;
#154 = APPROVAL_ROLE ( '' ) ;
#155 = PERSON_AND_ORGANIZATION_ROLE ( 'design_supplier' ) ;
#156 = PERSON_AND_ORGANIZATION ( #104, #52 ) ;
#157 = DIRECTION ( 'NONE',  ( 1.000000000000000000, 0.000000000000000000, 0.000000000000000000 ) ) ;
#158 = AXIS2_PLACEMENT_3D ( 'NONE', #45, #29, #60 ) ;
#159 = DIRECTION ( 'NONE',  ( 1.000000000000000000, 0.000000000000000000, -0.000000000000000000 ) ) ;
#160 = CC_DESIGN_APPROVAL ( #87, ( #106 ) ) ;
#161 = CARTESIAN_POINT ( 'NONE',  ( -12.50000000000000000, 0.000000000000000000, 0.000000000000000000 ) ) ;
#162 = EDGE_CURVE ( 'NONE', #46, #32, #172, .T. ) ;
#163 = ORIENTED_EDGE ( 'NONE', *, *, #132, .F. ) ;
#164 = ORIENTED_EDGE ( 'NONE', *, *, #132, .T. ) ;
#165 = EDGE_CURVE ( 'NONE', #28, #134, #137, .T. ) ;
#166 = PERSON_AND_ORGANIZATION ( #104, #52 ) ;
#167 = VECTOR ( 'NONE', #55, 1000.000000000000000 ) ;
#168 =( NAMED_UNIT ( * ) SI_UNIT ( $, .STERADIAN. ) SOLID_ANGLE_UNIT ( ) );
#169 = COORDINATED_UNIVERSAL_TIME_OFFSET ( 5, 0, .BEHIND. ) ;
#170 = LOCAL_TIME ( 15, 32, 14.00000000000000000, #115 ) ;
#171 = APPROVAL_PERSON_ORGANIZATION ( #88, #25, #67 ) ;
#172 = CIRCLE ( 'NONE', #41, 12.50000000000000000 ) ;
#173 = EDGE_LOOP ( 'NONE', ( #174, #136 ) ) ;
#174 = ORIENTED_EDGE ( 'NONE', *, *, #57, .T. ) ;
#175 = DATE_AND_TIME ( #125, #27 ) ;
ENDSEC;
END-ISO-10303-21;
