ISO-10303-21;
HEADER;
FILE_DESCRIPTION (( 'STEP AP203' ),
    '1' );
FILE_NAME ('Web Model 84453_47194.step',
    '2017-04-03T16:46:20',
    ( '' ),
    ( '' ),
    'SwSTEP 2.0',
    'SolidWorks 2016',
    '' );
FILE_SCHEMA (( 'CONFIG_CONTROL_DESIGN' ));
ENDSEC;

DATA;
#1 = AXIS2_PLACEMENT_3D ( 'NONE', #112, #157, #32 ) ;
#2 = CARTESIAN_POINT ( 'NONE',  ( 7.500000000000000000, 0.0000000000000000000, -2.000000000000000000 ) ) ;
#3 = AXIS2_PLACEMENT_3D ( 'NONE', #171, #5, #147 ) ;
#4 = PLANE ( 'NONE',  #60 ) ;
#5 = DIRECTION ( 'NONE',  ( 0.0000000000000000000, 0.0000000000000000000, 1.000000000000000000 ) ) ;
#6 = ORIENTED_EDGE ( 'NONE', *, *, #61, .T. ) ;
#7 = CARTESIAN_POINT ( 'NONE',  ( 0.0000000000000000000, 0.0000000000000000000, -2.000000000000000000 ) ) ;
#8 = ORIENTED_EDGE ( 'NONE', *, *, #106, .F. ) ;
#9 = PRODUCT_DEFINITION_FORMATION_WITH_SPECIFIED_SOURCE ( 'ANY', '', #164, .NOT_KNOWN. ) ;
#10 = APPROVAL_DATE_TIME ( #49, #135 ) ;
#11 =( GEOMETRIC_REPRESENTATION_CONTEXT ( 3 ) GLOBAL_UNCERTAINTY_ASSIGNED_CONTEXT ( ( #140 ) ) GLOBAL_UNIT_ASSIGNED_CONTEXT ( ( #89, #59, #85 ) ) REPRESENTATION_CONTEXT ( 'NONE', 'WORKASPACE' ) );
#12 = PERSON_AND_ORGANIZATION_ROLE ( 'creator' ) ;
#13 = DIRECTION ( 'NONE',  ( 1.000000000000000000, 0.0000000000000000000, 0.0000000000000000000 ) ) ;
#14 = DATE_TIME_ROLE ( 'classification_date' ) ;
#15 = APPROVAL_PERSON_ORGANIZATION ( #53, #135, #23 ) ;
#16 = DATE_AND_TIME ( #31, #107 ) ;
#17 = CC_DESIGN_APPROVAL ( #83, ( #55 ) ) ;
#18 = APPROVAL_STATUS ( 'not_yet_approved' ) ;
#19 = CIRCLE ( 'NONE', #175, 7.500000000000000000 ) ;
#20 = CARTESIAN_POINT ( 'NONE',  ( 0.0000000000000000000, 0.0000000000000000000, 0.0000000000000000000 ) ) ;
#21 = EDGE_LOOP ( 'NONE', ( #115, #64, #88, #8 ) ) ;
#22 = MECHANICAL_CONTEXT ( 'NONE', #29, 'mechanical' ) ;
#23 = APPROVAL_ROLE ( '' ) ;
#24 = COORDINATED_UNIVERSAL_TIME_OFFSET ( 5, 0, .BEHIND. ) ;
#25 = DATE_AND_TIME ( #63, #95 ) ;
#26 = EDGE_CURVE ( 'NONE', #108, #73, #80, .T. ) ;
#27 = ORIENTED_EDGE ( 'NONE', *, *, #158, .T. ) ;
#28 = CARTESIAN_POINT ( 'NONE',  ( -7.500000000000000000, 9.184850993605147900E-016, -2.000000000000000000 ) ) ;
#29 = APPLICATION_CONTEXT ( 'configuration controlled 3d designs of mechanical parts and assemblies' ) ;
#30 = PERSON_AND_ORGANIZATION ( #143, #39 ) ;
#31 = CALENDAR_DATE ( 2017, 3, 4 ) ;
#32 = DIRECTION ( 'NONE',  ( 1.000000000000000000, 0.0000000000000000000, 0.0000000000000000000 ) ) ;
#33 = CC_DESIGN_PERSON_AND_ORGANIZATION_ASSIGNMENT ( #58, #126, ( #160 ) ) ;
#34 = CARTESIAN_POINT ( 'NONE',  ( 0.0000000000000000000, 0.0000000000000000000, -2.000000000000000000 ) ) ;
#35 = APPROVAL_DATE_TIME ( #16, #83 ) ;
#36 = CYLINDRICAL_SURFACE ( 'NONE', #74, 7.500000000000000000 ) ;
#37 = AXIS2_PLACEMENT_3D ( 'NONE', #125, #127, #151 ) ;
#38 = DIRECTION ( 'NONE',  ( 0.0000000000000000000, 0.0000000000000000000, 1.000000000000000000 ) ) ;
#39 = ORGANIZATION ( 'UNSPECIFIED', 'UNSPECIFIED', '' ) ;
#40 = EDGE_LOOP ( 'NONE', ( #43, #162 ) ) ;
#41 = CARTESIAN_POINT ( 'NONE',  ( 0.0000000000000000000, 0.0000000000000000000, -2.000000000000000000 ) ) ;
#42 = CC_DESIGN_DATE_AND_TIME_ASSIGNMENT ( #69, #94, ( #55 ) ) ;
#43 = ORIENTED_EDGE ( 'NONE', *, *, #104, .F. ) ;
#44 = ADVANCED_FACE ( 'NONE', ( #56 ), #165, .F. ) ;
#45 = CARTESIAN_POINT ( 'NONE',  ( 0.0000000000000000000, 0.0000000000000000000, 0.0000000000000000000 ) ) ;
#46 = APPROVAL_PERSON_ORGANIZATION ( #159, #83, #57 ) ;
#47 = AXIS2_PLACEMENT_3D ( 'NONE', #155, #75, #110 ) ;
#48 = ORIENTED_EDGE ( 'NONE', *, *, #26, .F. ) ;
#49 = DATE_AND_TIME ( #84, #117 ) ;
#50 = AXIS2_PLACEMENT_3D ( 'NONE', #20, #62, #13 ) ;
#51 = ADVANCED_FACE ( 'NONE', ( #124 ), #174, .T. ) ;
#52 = COORDINATED_UNIVERSAL_TIME_OFFSET ( 5, 0, .BEHIND. ) ;
#53 = PERSON_AND_ORGANIZATION ( #143, #39 ) ;
#54 = VECTOR ( 'NONE', #170, 1000.000000000000000 ) ;
#55 = PRODUCT_DEFINITION ( 'UNKNOWN', '', #9, #72 ) ;
#56 = FACE_OUTER_BOUND ( 'NONE', #40, .T. ) ;
#57 = APPROVAL_ROLE ( '' ) ;
#58 = PERSON_AND_ORGANIZATION ( #143, #39 ) ;
#59 =( NAMED_UNIT ( * ) PLANE_ANGLE_UNIT ( ) SI_UNIT ( $, .RADIAN. ) );
#60 = AXIS2_PLACEMENT_3D ( 'NONE', #45, #78, #120 ) ;
#61 = EDGE_CURVE ( 'NONE', #73, #108, #144, .T. ) ;
#62 = DIRECTION ( 'NONE',  ( 0.0000000000000000000, 0.0000000000000000000, 1.000000000000000000 ) ) ;
#63 = CALENDAR_DATE ( 2017, 3, 4 ) ;
#64 = ORIENTED_EDGE ( 'NONE', *, *, #66, .T. ) ;
#65 = DIRECTION ( 'NONE',  ( 1.000000000000000000, 0.0000000000000000000, 0.0000000000000000000 ) ) ;
#66 = EDGE_CURVE ( 'NONE', #145, #108, #154, .T. ) ;
#67 = PERSON_AND_ORGANIZATION_ROLE ( 'design_owner' ) ;
#68 = CC_DESIGN_APPROVAL ( #136, ( #9 ) ) ;
#69 = DATE_AND_TIME ( #102, #139 ) ;
#70 = COORDINATED_UNIVERSAL_TIME_OFFSET ( 5, 0, .BEHIND. ) ;
#71 = ADVANCED_FACE ( 'NONE', ( #79 ), #4, .T. ) ;
#72 = DESIGN_CONTEXT ( 'detailed design', #172, 'design' ) ;
#73 = VERTEX_POINT ( 'NONE', #90 ) ;
#74 = AXIS2_PLACEMENT_3D ( 'NONE', #34, #38, #99 ) ;
#75 = DIRECTION ( 'NONE',  ( 0.0000000000000000000, 0.0000000000000000000, 1.000000000000000000 ) ) ;
#76 = APPROVAL_STATUS ( 'not_yet_approved' ) ;
#77 = CARTESIAN_POINT ( 'NONE',  ( -7.500000000000000000, 9.184850993605147900E-016, -2.000000000000000000 ) ) ;
#78 = DIRECTION ( 'NONE',  ( 0.0000000000000000000, 0.0000000000000000000, 1.000000000000000000 ) ) ;
#79 = FACE_OUTER_BOUND ( 'NONE', #152, .T. ) ;
#80 = CIRCLE ( 'NONE', #3, 7.500000000000000000 ) ;
#81 = PRODUCT_RELATED_PRODUCT_CATEGORY ( 'detail', '', ( #164 ) ) ;
#82 = CLOSED_SHELL ( 'NONE', ( #93, #51, #44, #71 ) ) ;
#83 = APPROVAL ( #18, 'UNSPECIFIED' ) ;
#84 = CALENDAR_DATE ( 2017, 3, 4 ) ;
#85 =( NAMED_UNIT ( * ) SI_UNIT ( $, .STERADIAN. ) SOLID_ANGLE_UNIT ( ) );
#86 = APPLICATION_PROTOCOL_DEFINITION ( 'international standard', 'config_control_design', 1994, #172 ) ;
#87 = ORIENTED_EDGE ( 'NONE', *, *, #106, .T. ) ;
#88 = ORIENTED_EDGE ( 'NONE', *, *, #61, .F. ) ;
#89 =( LENGTH_UNIT ( ) NAMED_UNIT ( * ) SI_UNIT ( .MILLI., .METRE. ) );
#90 = CARTESIAN_POINT ( 'NONE',  ( 7.500000000000000000, 0.0000000000000000000, 0.0000000000000000000 ) ) ;
#91 = DATE_AND_TIME ( #122, #161 ) ;
#92 = PERSON_AND_ORGANIZATION ( #143, #39 ) ;
#93 = ADVANCED_FACE ( 'NONE', ( #148 ), #36, .T. ) ;
#94 = DATE_TIME_ROLE ( 'creation_date' ) ;
#95 = LOCAL_TIME ( 12, 46, 20.00000000000000000, #134 ) ;
#96 = EDGE_LOOP ( 'NONE', ( #150, #27, #87, #48 ) ) ;
#97 = PRODUCT_DEFINITION_SHAPE ( 'NONE', 'NONE',  #55 ) ;
#98 = CC_DESIGN_PERSON_AND_ORGANIZATION_ASSIGNMENT ( #131, #167, ( #9 ) ) ;
#99 = DIRECTION ( 'NONE',  ( 1.000000000000000000, 0.0000000000000000000, 0.0000000000000000000 ) ) ;
#100 = DIRECTION ( 'NONE',  ( 0.0000000000000000000, 0.0000000000000000000, 1.000000000000000000 ) ) ;
#101 = CC_DESIGN_DATE_AND_TIME_ASSIGNMENT ( #91, #14, ( #160 ) ) ;
#102 = CALENDAR_DATE ( 2017, 3, 4 ) ;
#103 = VECTOR ( 'NONE', #100, 1000.000000000000000 ) ;
#104 = EDGE_CURVE ( 'NONE', #123, #145, #19, .T. ) ;
#105 = CC_DESIGN_PERSON_AND_ORGANIZATION_ASSIGNMENT ( #92, #130, ( #9 ) ) ;
#106 = EDGE_CURVE ( 'NONE', #123, #73, #128, .T. ) ;
#107 = LOCAL_TIME ( 12, 46, 20.00000000000000000, #70 ) ;
#108 = VERTEX_POINT ( 'NONE', #168 ) ;
#109 = MANIFOLD_SOLID_BREP ( 'Extrude1', #82 ) ;
#110 = DIRECTION ( 'NONE',  ( 1.000000000000000000, 0.0000000000000000000, -0.0000000000000000000 ) ) ;
#111 = APPLICATION_PROTOCOL_DEFINITION ( 'international standard', 'config_control_design', 1994, #29 ) ;
#112 = CARTESIAN_POINT ( 'NONE',  ( 0.0000000000000000000, 0.0000000000000000000, 0.0000000000000000000 ) ) ;
#113 = SECURITY_CLASSIFICATION_LEVEL ( 'unclassified' ) ;
#114 = PERSON_AND_ORGANIZATION ( #143, #39 ) ;
#115 = ORIENTED_EDGE ( 'NONE', *, *, #104, .T. ) ;
#116 = CC_DESIGN_PERSON_AND_ORGANIZATION_ASSIGNMENT ( #141, #67, ( #164 ) ) ;
#117 = LOCAL_TIME ( 12, 46, 20.00000000000000000, #156 ) ;
#118 = CARTESIAN_POINT ( 'NONE',  ( 7.500000000000000000, 0.0000000000000000000, -2.000000000000000000 ) ) ;
#119 = SHAPE_DEFINITION_REPRESENTATION ( #97, #121 ) ;
#120 = DIRECTION ( 'NONE',  ( 1.000000000000000000, 0.0000000000000000000, -0.0000000000000000000 ) ) ;
#121 = ADVANCED_BREP_SHAPE_REPRESENTATION ( 'Web Model 84453_47194', ( #109, #1 ), #11 ) ;
#122 = CALENDAR_DATE ( 2017, 3, 4 ) ;
#123 = VERTEX_POINT ( 'NONE', #118 ) ;
#124 = FACE_OUTER_BOUND ( 'NONE', #96, .T. ) ;
#125 = CARTESIAN_POINT ( 'NONE',  ( 0.0000000000000000000, 0.0000000000000000000, -2.000000000000000000 ) ) ;
#126 = PERSON_AND_ORGANIZATION_ROLE ( 'classification_officer' ) ;
#127 = DIRECTION ( 'NONE',  ( 0.0000000000000000000, 0.0000000000000000000, 1.000000000000000000 ) ) ;
#128 = LINE ( 'NONE', #2, #103 ) ;
#129 = DIRECTION ( 'NONE',  ( 0.0000000000000000000, 0.0000000000000000000, 1.000000000000000000 ) ) ;
#130 = PERSON_AND_ORGANIZATION_ROLE ( 'design_supplier' ) ;
#131 = PERSON_AND_ORGANIZATION ( #143, #39 ) ;
#132 = CIRCLE ( 'NONE', #37, 7.500000000000000000 ) ;
#133 = CC_DESIGN_SECURITY_CLASSIFICATION ( #160, ( #9 ) ) ;
#134 = COORDINATED_UNIVERSAL_TIME_OFFSET ( 5, 0, .BEHIND. ) ;
#135 = APPROVAL ( #149, 'UNSPECIFIED' ) ;
#136 = APPROVAL ( #76, 'UNSPECIFIED' ) ;
#137 = CC_DESIGN_PERSON_AND_ORGANIZATION_ASSIGNMENT ( #114, #12, ( #55 ) ) ;
#138 = DIRECTION ( 'NONE',  ( 0.0000000000000000000, 0.0000000000000000000, 1.000000000000000000 ) ) ;
#139 = LOCAL_TIME ( 12, 46, 20.00000000000000000, #52 ) ;
#140 = UNCERTAINTY_MEASURE_WITH_UNIT (LENGTH_MEASURE( 1.000000000000000100E-005 ), #89, 'distance_accuracy_value', 'NONE');
#141 = PERSON_AND_ORGANIZATION ( #143, #39 ) ;
#142 = AXIS2_PLACEMENT_3D ( 'NONE', #41, #129, #65 ) ;
#143 = PERSON ( 'UNSPECIFIED', 'UNSPECIFIED', 'UNSPECIFIED', ('UNSPECIFIED'), ('UNSPECIFIED'), ('UNSPECIFIED') ) ;
#144 = CIRCLE ( 'NONE', #50, 7.500000000000000000 ) ;
#145 = VERTEX_POINT ( 'NONE', #28 ) ;
#146 = APPROVAL_ROLE ( '' ) ;
#147 = DIRECTION ( 'NONE',  ( 1.000000000000000000, 0.0000000000000000000, 0.0000000000000000000 ) ) ;
#148 = FACE_OUTER_BOUND ( 'NONE', #21, .T. ) ;
#149 = APPROVAL_STATUS ( 'not_yet_approved' ) ;
#150 = ORIENTED_EDGE ( 'NONE', *, *, #66, .F. ) ;
#151 = DIRECTION ( 'NONE',  ( 1.000000000000000000, 0.0000000000000000000, 0.0000000000000000000 ) ) ;
#152 = EDGE_LOOP ( 'NONE', ( #6, #153 ) ) ;
#153 = ORIENTED_EDGE ( 'NONE', *, *, #26, .T. ) ;
#154 = LINE ( 'NONE', #77, #54 ) ;
#155 = CARTESIAN_POINT ( 'NONE',  ( 0.0000000000000000000, 0.0000000000000000000, -2.000000000000000000 ) ) ;
#156 = COORDINATED_UNIVERSAL_TIME_OFFSET ( 5, 0, .BEHIND. ) ;
#157 = DIRECTION ( 'NONE',  ( 0.0000000000000000000, 0.0000000000000000000, 1.000000000000000000 ) ) ;
#158 = EDGE_CURVE ( 'NONE', #145, #123, #132, .T. ) ;
#159 = PERSON_AND_ORGANIZATION ( #143, #39 ) ;
#160 = SECURITY_CLASSIFICATION ( '', '', #113 ) ;
#161 = LOCAL_TIME ( 12, 46, 20.00000000000000000, #24 ) ;
#162 = ORIENTED_EDGE ( 'NONE', *, *, #158, .F. ) ;
#163 = CC_DESIGN_APPROVAL ( #135, ( #160 ) ) ;
#164 = PRODUCT ( 'Web Model 84453_47194', 'Web Model 84453_47194', '', ( #22 ) ) ;
#165 = PLANE ( 'NONE',  #47 ) ;
#166 = DIRECTION ( 'NONE',  ( 1.000000000000000000, 0.0000000000000000000, 0.0000000000000000000 ) ) ;
#167 = PERSON_AND_ORGANIZATION_ROLE ( 'creator' ) ;
#168 = CARTESIAN_POINT ( 'NONE',  ( -7.500000000000000000, 9.184850993605147900E-016, 0.0000000000000000000 ) ) ;
#169 = APPROVAL_DATE_TIME ( #25, #136 ) ;
#170 = DIRECTION ( 'NONE',  ( 0.0000000000000000000, 0.0000000000000000000, 1.000000000000000000 ) ) ;
#171 = CARTESIAN_POINT ( 'NONE',  ( 0.0000000000000000000, 0.0000000000000000000, 0.0000000000000000000 ) ) ;
#172 = APPLICATION_CONTEXT ( 'configuration controlled 3d designs of mechanical parts and assemblies' ) ;
#173 = APPROVAL_PERSON_ORGANIZATION ( #30, #136, #146 ) ;
#174 = CYLINDRICAL_SURFACE ( 'NONE', #142, 7.500000000000000000 ) ;
#175 = AXIS2_PLACEMENT_3D ( 'NONE', #7, #138, #166 ) ;
ENDSEC;
END-ISO-10303-21;
