ISO-10303-21;
HEADER;
FILE_DESCRIPTION (( 'STEP AP203' ),
    '1' );
FILE_NAME ('Web Model 46689.STEP',
    '2017-01-31T15:19:20',
    ( '' ),
    ( '' ),
    'SwSTEP 2.0',
    'SolidWorks 2016',
    '' );
FILE_SCHEMA (( 'CONFIG_CONTROL_DESIGN' ));
ENDSEC;

DATA;
#1 = CLOSED_SHELL ( 'NONE', ( #19, #93, #9, #108, #161, #21 ) ) ;
#2 = FACE_OUTER_BOUND ( 'NONE', #219, .T. ) ;
#3 = APPROVAL_ROLE ( '' ) ;
#4 = ORIENTED_EDGE ( 'NONE', *, *, #73, .T. ) ;
#5 = DATE_TIME_ROLE ( 'classification_date' ) ;
#6 = PERSON_AND_ORGANIZATION_ROLE ( 'creator' ) ;
#7 = ORIENTED_EDGE ( 'NONE', *, *, #183, .F. ) ;
#8 = APPROVAL_DATE_TIME ( #74, #68 ) ;
#9 = ADVANCED_FACE ( 'NONE', ( #10 ), #171, .F. ) ;
#10 = FACE_OUTER_BOUND ( 'NONE', #215, .T. ) ;
#11 = APPROVAL_PERSON_ORGANIZATION ( #111, #68, #157 ) ;
#12 = CARTESIAN_POINT ( 'NONE',  ( 8.999999999999996400, -14.99999999999999600, 0.0000000000000000000 ) ) ;
#13 = CARTESIAN_POINT ( 'NONE',  ( -9.000000000000003600, -14.99999999999999600, 0.0000000000000000000 ) ) ;
#14 = DIRECTION ( 'NONE',  ( 0.0000000000000000000, 0.0000000000000000000, 1.000000000000000000 ) ) ;
#15 =( NAMED_UNIT ( * ) PLANE_ANGLE_UNIT ( ) SI_UNIT ( $, .RADIAN. ) );
#16 = EDGE_LOOP ( 'NONE', ( #109, #177, #7, #136 ) ) ;
#17 = EDGE_CURVE ( 'NONE', #207, #226, #53, .T. ) ;
#18 = PERSON_AND_ORGANIZATION_ROLE ( 'design_owner' ) ;
#19 = ADVANCED_FACE ( 'NONE', ( #202 ), #154, .F. ) ;
#20 = VERTEX_POINT ( 'NONE', #82 ) ;
#21 = ADVANCED_FACE ( 'NONE', ( #55 ), #46, .F. ) ;
#22 = CC_DESIGN_APPROVAL ( #232, ( #185 ) ) ;
#23 = CALENDAR_DATE ( 2017, 31, 1 ) ;
#24 = PLANE ( 'NONE',  #174 ) ;
#25 = EDGE_LOOP ( 'NONE', ( #118, #229, #156, #42 ) ) ;
#26 = DIRECTION ( 'NONE',  ( -1.156482317317871500E-016, 1.000000000000000000, -0.0000000000000000000 ) ) ;
#27 = CARTESIAN_POINT ( 'NONE',  ( -9.000000000000007100, 15.00000000000000400, 0.0000000000000000000 ) ) ;
#28 = CARTESIAN_POINT ( 'NONE',  ( -9.000000000000007100, 15.00000000000000400, 0.0000000000000000000 ) ) ;
#29 = EDGE_CURVE ( 'NONE', #207, #131, #132, .T. ) ;
#30 = CARTESIAN_POINT ( 'NONE',  ( -9.000000000000003600, -14.99999999999999600, 0.0000000000000000000 ) ) ;
#31 = DIRECTION ( 'NONE',  ( 1.000000000000000000, 0.0000000000000000000, 0.0000000000000000000 ) ) ;
#32 = DATE_AND_TIME ( #145, #159 ) ;
#33 = VERTEX_POINT ( 'NONE', #28 ) ;
#34 = APPLICATION_PROTOCOL_DEFINITION ( 'international standard', 'config_control_design', 1994, #203 ) ;
#35 = ORIENTED_EDGE ( 'NONE', *, *, #110, .T. ) ;
#36 = APPLICATION_PROTOCOL_DEFINITION ( 'international standard', 'config_control_design', 1994, #106 ) ;
#37 = APPROVAL_PERSON_ORGANIZATION ( #49, #232, #3 ) ;
#38 = COORDINATED_UNIVERSAL_TIME_OFFSET ( 5, 0, .BEHIND. ) ;
#39 = ORIENTED_EDGE ( 'NONE', *, *, #220, .T. ) ;
#40 = CC_DESIGN_PERSON_AND_ORGANIZATION_ASSIGNMENT ( #70, #126, ( #185 ) ) ;
#41 = PRODUCT_DEFINITION ( 'UNKNOWN', '', #185, #139 ) ;
#42 = ORIENTED_EDGE ( 'NONE', *, *, #29, .T. ) ;
#43 = PERSON_AND_ORGANIZATION ( #205, #87 ) ;
#44 = VECTOR ( 'NONE', #97, 1000.000000000000000 ) ;
#45 = DIRECTION ( 'NONE',  ( -0.0000000000000000000, 0.0000000000000000000, 1.000000000000000000 ) ) ;
#46 = PLANE ( 'NONE',  #104 ) ;
#47 = DIRECTION ( 'NONE',  ( -1.000000000000000000, -0.0000000000000000000, -0.0000000000000000000 ) ) ;
#48 = CARTESIAN_POINT ( 'NONE',  ( -9.000000000000007100, 15.00000000000000400, 2.000000000000000000 ) ) ;
#49 = PERSON_AND_ORGANIZATION ( #205, #87 ) ;
#50 = LINE ( 'NONE', #169, #225 ) ;
#51 = COORDINATED_UNIVERSAL_TIME_OFFSET ( 5, 0, .BEHIND. ) ;
#52 = LINE ( 'NONE', #101, #83 ) ;
#53 = LINE ( 'NONE', #114, #105 ) ;
#54 = PRODUCT ( 'Web Model 46689', 'Web Model 46689', '', ( #88 ) ) ;
#55 = FACE_OUTER_BOUND ( 'NONE', #16, .T. ) ;
#56 = ORIENTED_EDGE ( 'NONE', *, *, #208, .F. ) ;
#57 = PLANE ( 'NONE',  #186 ) ;
#58 = DATE_AND_TIME ( #23, #92 ) ;
#59 = DIRECTION ( 'NONE',  ( -1.156482317317871500E-016, 1.000000000000000000, -0.0000000000000000000 ) ) ;
#60 = DIRECTION ( 'NONE',  ( 1.000000000000000000, 0.0000000000000000000, 0.0000000000000000000 ) ) ;
#61 = ORIENTED_EDGE ( 'NONE', *, *, #197, .T. ) ;
#62 = CC_DESIGN_PERSON_AND_ORGANIZATION_ASSIGNMENT ( #158, #6, ( #185 ) ) ;
#63 = PERSON_AND_ORGANIZATION ( #205, #87 ) ;
#64 = EDGE_LOOP ( 'NONE', ( #221, #56, #140, #113 ) ) ;
#65 = AXIS2_PLACEMENT_3D ( 'NONE', #72, #14, #127 ) ;
#66 = APPROVAL_STATUS ( 'not_yet_approved' ) ;
#67 = DATE_TIME_ROLE ( 'creation_date' ) ;
#68 = APPROVAL ( #66, 'UNSPECIFIED' ) ;
#69 = COORDINATED_UNIVERSAL_TIME_OFFSET ( 5, 0, .BEHIND. ) ;
#70 = PERSON_AND_ORGANIZATION ( #205, #87 ) ;
#71 = ORIENTED_EDGE ( 'NONE', *, *, #81, .T. ) ;
#72 = CARTESIAN_POINT ( 'NONE',  ( 0.0000000000000000000, 0.0000000000000000000, 0.0000000000000000000 ) ) ;
#73 = EDGE_CURVE ( 'NONE', #20, #207, #78, .T. ) ;
#74 = DATE_AND_TIME ( #120, #190 ) ;
#75 = CC_DESIGN_PERSON_AND_ORGANIZATION_ASSIGNMENT ( #43, #122, ( #124 ) ) ;
#76 = CARTESIAN_POINT ( 'NONE',  ( 8.999999999999996400, -14.99999999999999600, 2.000000000000000000 ) ) ;
#77 = VERTEX_POINT ( 'NONE', #30 ) ;
#78 = LINE ( 'NONE', #173, #204 ) ;
#79 = DIRECTION ( 'NONE',  ( 0.0000000000000000000, -0.0000000000000000000, 1.000000000000000000 ) ) ;
#80 = DIRECTION ( 'NONE',  ( 0.0000000000000000000, 1.000000000000000000, 0.0000000000000000000 ) ) ;
#81 = EDGE_CURVE ( 'NONE', #20, #77, #50, .T. ) ;
#82 = CARTESIAN_POINT ( 'NONE',  ( -9.000000000000003600, -14.99999999999999600, 2.000000000000000000 ) ) ;
#83 = VECTOR ( 'NONE', #47, 1000.000000000000000 ) ;
#84 = CARTESIAN_POINT ( 'NONE',  ( -9.000000000000007100, 15.00000000000000400, 2.000000000000000000 ) ) ;
#85 = DIRECTION ( 'NONE',  ( 1.156482317317871500E-016, -1.000000000000000000, 0.0000000000000000000 ) ) ;
#86 = APPROVAL ( #147, 'UNSPECIFIED' ) ;
#87 = ORGANIZATION ( 'UNSPECIFIED', 'UNSPECIFIED', '' ) ;
#88 = MECHANICAL_CONTEXT ( 'NONE', #203, 'mechanical' ) ;
#89 = VECTOR ( 'NONE', #175, 1000.000000000000000 ) ;
#90 = APPROVAL_ROLE ( '' ) ;
#91 = ORIENTED_EDGE ( 'NONE', *, *, #183, .T. ) ;
#92 = LOCAL_TIME ( 10, 19, 20.00000000000000000, #38 ) ;
#93 = ADVANCED_FACE ( 'NONE', ( #130 ), #57, .F. ) ;
#94 = LINE ( 'NONE', #210, #44 ) ;
#95 = CC_DESIGN_PERSON_AND_ORGANIZATION_ASSIGNMENT ( #179, #18, ( #54 ) ) ;
#96 = DIRECTION ( 'NONE',  ( 1.000000000000000000, 0.0000000000000000000, 0.0000000000000000000 ) ) ;
#97 = DIRECTION ( 'NONE',  ( -0.0000000000000000000, -0.0000000000000000000, -1.000000000000000000 ) ) ;
#98 = CARTESIAN_POINT ( 'NONE',  ( -9.000000000000007100, 15.00000000000000400, 2.000000000000000000 ) ) ;
#99 = CARTESIAN_POINT ( 'NONE',  ( -9.000000000000003600, -14.99999999999999600, 2.000000000000000000 ) ) ;
#100 = CARTESIAN_POINT ( 'NONE',  ( -9.000000000000007100, 15.00000000000000400, 2.000000000000000000 ) ) ;
#101 = CARTESIAN_POINT ( 'NONE',  ( -9.000000000000007100, 15.00000000000000400, 2.000000000000000000 ) ) ;
#102 = LOCAL_TIME ( 10, 19, 20.00000000000000000, #69 ) ;
#103 = VERTEX_POINT ( 'NONE', #98 ) ;
#104 = AXIS2_PLACEMENT_3D ( 'NONE', #137, #188, #234 ) ;
#105 = VECTOR ( 'NONE', #59, 1000.000000000000000 ) ;
#106 = APPLICATION_CONTEXT ( 'configuration controlled 3d designs of mechanical parts and assemblies' ) ;
#107 = VECTOR ( 'NONE', #237, 1000.000000000000000 ) ;
#108 = ADVANCED_FACE ( 'NONE', ( #206 ), #24, .F. ) ;
#109 = ORIENTED_EDGE ( 'NONE', *, *, #153, .F. ) ;
#110 = EDGE_CURVE ( 'NONE', #77, #131, #168, .T. ) ;
#111 = PERSON_AND_ORGANIZATION ( #205, #87 ) ;
#112 = VECTOR ( 'NONE', #26, 1000.000000000000000 ) ;
#113 = ORIENTED_EDGE ( 'NONE', *, *, #138, .T. ) ;
#114 = CARTESIAN_POINT ( 'NONE',  ( 8.999999999999992900, 15.00000000000000400, 2.000000000000000000 ) ) ;
#115 = CC_DESIGN_APPROVAL ( #86, ( #41 ) ) ;
#116 = DIRECTION ( 'NONE',  ( 0.0000000000000000000, -1.000000000000000000, 0.0000000000000000000 ) ) ;
#117 = DIRECTION ( 'NONE',  ( 1.156482317317871700E-016, -1.000000000000000000, 0.0000000000000000000 ) ) ;
#118 = ORIENTED_EDGE ( 'NONE', *, *, #153, .T. ) ;
#119 = APPROVAL_PERSON_ORGANIZATION ( #128, #86, #90 ) ;
#120 = CALENDAR_DATE ( 2017, 31, 1 ) ;
#121 = ORIENTED_EDGE ( 'NONE', *, *, #73, .F. ) ;
#122 = PERSON_AND_ORGANIZATION_ROLE ( 'classification_officer' ) ;
#123 = SECURITY_CLASSIFICATION_LEVEL ( 'unclassified' ) ;
#124 = SECURITY_CLASSIFICATION ( '', '', #123 ) ;
#125 = AXIS2_PLACEMENT_3D ( 'NONE', #100, #228, #235 ) ;
#126 = PERSON_AND_ORGANIZATION_ROLE ( 'design_supplier' ) ;
#127 = DIRECTION ( 'NONE',  ( 1.000000000000000000, 0.0000000000000000000, 0.0000000000000000000 ) ) ;
#128 = PERSON_AND_ORGANIZATION ( #205, #87 ) ;
#129 = CC_DESIGN_DATE_AND_TIME_ASSIGNMENT ( #32, #67, ( #41 ) ) ;
#130 = FACE_OUTER_BOUND ( 'NONE', #64, .T. ) ;
#131 = VERTEX_POINT ( 'NONE', #12 ) ;
#132 = LINE ( 'NONE', #76, #150 ) ;
#133 = CARTESIAN_POINT ( 'NONE',  ( 8.999999999999992900, 15.00000000000000400, 0.0000000000000000000 ) ) ;
#134 = DIRECTION ( 'NONE',  ( 0.0000000000000000000, -0.0000000000000000000, -1.000000000000000000 ) ) ;
#135 = VECTOR ( 'NONE', #216, 1000.000000000000000 ) ;
#136 = ORIENTED_EDGE ( 'NONE', *, *, #194, .F. ) ;
#137 = CARTESIAN_POINT ( 'NONE',  ( 8.999999999999996400, -14.99999999999999600, 0.0000000000000000000 ) ) ;
#138 = EDGE_CURVE ( 'NONE', #226, #170, #94, .T. ) ;
#139 = DESIGN_CONTEXT ( 'detailed design', #106, 'design' ) ;
#140 = ORIENTED_EDGE ( 'NONE', *, *, #197, .F. ) ;
#141 = APPROVAL_DATE_TIME ( #217, #232 ) ;
#142 = VECTOR ( 'NONE', #60, 1000.000000000000000 ) ;
#143 = CC_DESIGN_PERSON_AND_ORGANIZATION_ASSIGNMENT ( #63, #222, ( #41 ) ) ;
#144 =( GEOMETRIC_REPRESENTATION_CONTEXT ( 3 ) GLOBAL_UNCERTAINTY_ASSIGNED_CONTEXT ( ( #199 ) ) GLOBAL_UNIT_ASSIGNED_CONTEXT ( ( #214, #15, #151 ) ) REPRESENTATION_CONTEXT ( 'NONE', 'WORKASPACE' ) );
#145 = CALENDAR_DATE ( 2017, 31, 1 ) ;
#146 = CC_DESIGN_SECURITY_CLASSIFICATION ( #124, ( #185 ) ) ;
#147 = APPROVAL_STATUS ( 'not_yet_approved' ) ;
#148 = CALENDAR_DATE ( 2017, 31, 1 ) ;
#149 = AXIS2_PLACEMENT_3D ( 'NONE', #213, #45, #31 ) ;
#150 = VECTOR ( 'NONE', #209, 1000.000000000000000 ) ;
#151 =( NAMED_UNIT ( * ) SI_UNIT ( $, .STERADIAN. ) SOLID_ANGLE_UNIT ( ) );
#152 = PLANE ( 'NONE',  #149 ) ;
#153 = EDGE_CURVE ( 'NONE', #131, #170, #191, .T. ) ;
#154 = PLANE ( 'NONE',  #163 ) ;
#155 = CARTESIAN_POINT ( 'NONE',  ( -9.000000000000007100, 15.00000000000000400, 0.0000000000000000000 ) ) ;
#156 = ORIENTED_EDGE ( 'NONE', *, *, #17, .F. ) ;
#157 = APPROVAL_ROLE ( '' ) ;
#158 = PERSON_AND_ORGANIZATION ( #205, #87 ) ;
#159 = LOCAL_TIME ( 10, 19, 20.00000000000000000, #184 ) ;
#160 = ORIENTED_EDGE ( 'NONE', *, *, #17, .T. ) ;
#161 = ADVANCED_FACE ( 'NONE', ( #2 ), #152, .T. ) ;
#162 = PRODUCT_RELATED_PRODUCT_CATEGORY ( 'detail', '', ( #54 ) ) ;
#163 = AXIS2_PLACEMENT_3D ( 'NONE', #212, #230, #117 ) ;
#164 = ADVANCED_BREP_SHAPE_REPRESENTATION ( 'Web Model 46689', ( #181, #65 ), #144 ) ;
#165 = PRODUCT_DEFINITION_SHAPE ( 'NONE', 'NONE',  #41 ) ;
#166 = VECTOR ( 'NONE', #85, 1000.000000000000000 ) ;
#167 = LOCAL_TIME ( 10, 19, 20.00000000000000000, #51 ) ;
#168 = LINE ( 'NONE', #13, #142 ) ;
#169 = CARTESIAN_POINT ( 'NONE',  ( -9.000000000000003600, -14.99999999999999600, 2.000000000000000000 ) ) ;
#170 = VERTEX_POINT ( 'NONE', #133 ) ;
#171 = PLANE ( 'NONE',  #125 ) ;
#172 = DATE_AND_TIME ( #148, #102 ) ;
#173 = CARTESIAN_POINT ( 'NONE',  ( -9.000000000000003600, -14.99999999999999600, 2.000000000000000000 ) ) ;
#174 = AXIS2_PLACEMENT_3D ( 'NONE', #99, #80, #79 ) ;
#175 = DIRECTION ( 'NONE',  ( -0.0000000000000000000, -0.0000000000000000000, -1.000000000000000000 ) ) ;
#176 = COORDINATED_UNIVERSAL_TIME_OFFSET ( 5, 0, .BEHIND. ) ;
#177 = ORIENTED_EDGE ( 'NONE', *, *, #110, .F. ) ;
#178 = APPROVAL_STATUS ( 'not_yet_approved' ) ;
#179 = PERSON_AND_ORGANIZATION ( #205, #87 ) ;
#180 = CC_DESIGN_APPROVAL ( #68, ( #124 ) ) ;
#181 = MANIFOLD_SOLID_BREP ( 'Extrude1', #1 ) ;
#182 = ORIENTED_EDGE ( 'NONE', *, *, #208, .T. ) ;
#183 = EDGE_CURVE ( 'NONE', #33, #77, #193, .T. ) ;
#184 = COORDINATED_UNIVERSAL_TIME_OFFSET ( 5, 0, .BEHIND. ) ;
#185 = PRODUCT_DEFINITION_FORMATION_WITH_SPECIFIED_SOURCE ( 'ANY', '', #54, .NOT_KNOWN. ) ;
#186 = AXIS2_PLACEMENT_3D ( 'NONE', #195, #116, #134 ) ;
#187 = ORIENTED_EDGE ( 'NONE', *, *, #29, .F. ) ;
#188 = DIRECTION ( 'NONE',  ( -0.0000000000000000000, 0.0000000000000000000, 1.000000000000000000 ) ) ;
#189 = CC_DESIGN_DATE_AND_TIME_ASSIGNMENT ( #58, #5, ( #124 ) ) ;
#190 = LOCAL_TIME ( 10, 19, 20.00000000000000000, #176 ) ;
#191 = LINE ( 'NONE', #192, #112 ) ;
#192 = CARTESIAN_POINT ( 'NONE',  ( 8.999999999999992900, 15.00000000000000400, 0.0000000000000000000 ) ) ;
#193 = LINE ( 'NONE', #155, #107 ) ;
#194 = EDGE_CURVE ( 'NONE', #170, #33, #201, .T. ) ;
#195 = CARTESIAN_POINT ( 'NONE',  ( -9.000000000000007100, 15.00000000000000400, 2.000000000000000000 ) ) ;
#196 = CARTESIAN_POINT ( 'NONE',  ( 8.999999999999996400, -14.99999999999999600, 2.000000000000000000 ) ) ;
#197 = EDGE_CURVE ( 'NONE', #226, #103, #52, .T. ) ;
#198 = CARTESIAN_POINT ( 'NONE',  ( 8.999999999999992900, 15.00000000000000400, 2.000000000000000000 ) ) ;
#199 = UNCERTAINTY_MEASURE_WITH_UNIT (LENGTH_MEASURE( 1.000000000000000100E-005 ), #214, 'distance_accuracy_value', 'NONE');
#200 = SHAPE_DEFINITION_REPRESENTATION ( #165, #164 ) ;
#201 = LINE ( 'NONE', #27, #135 ) ;
#202 = FACE_OUTER_BOUND ( 'NONE', #25, .T. ) ;
#203 = APPLICATION_CONTEXT ( 'configuration controlled 3d designs of mechanical parts and assemblies' ) ;
#204 = VECTOR ( 'NONE', #96, 1000.000000000000000 ) ;
#205 = PERSON ( 'UNSPECIFIED', 'UNSPECIFIED', 'UNSPECIFIED', ('UNSPECIFIED'), ('UNSPECIFIED'), ('UNSPECIFIED') ) ;
#206 = FACE_OUTER_BOUND ( 'NONE', #224, .T. ) ;
#207 = VERTEX_POINT ( 'NONE', #196 ) ;
#208 = EDGE_CURVE ( 'NONE', #103, #33, #233, .T. ) ;
#209 = DIRECTION ( 'NONE',  ( -0.0000000000000000000, -0.0000000000000000000, -1.000000000000000000 ) ) ;
#210 = CARTESIAN_POINT ( 'NONE',  ( 8.999999999999992900, 15.00000000000000400, 2.000000000000000000 ) ) ;
#211 = ORIENTED_EDGE ( 'NONE', *, *, #220, .F. ) ;
#212 = CARTESIAN_POINT ( 'NONE',  ( 8.999999999999992900, 15.00000000000000400, 2.000000000000000000 ) ) ;
#213 = CARTESIAN_POINT ( 'NONE',  ( 8.999999999999996400, -14.99999999999999600, 2.000000000000000000 ) ) ;
#214 =( LENGTH_UNIT ( ) NAMED_UNIT ( * ) SI_UNIT ( .MILLI., .METRE. ) );
#215 = EDGE_LOOP ( 'NONE', ( #91, #236, #211, #182 ) ) ;
#216 = DIRECTION ( 'NONE',  ( -1.000000000000000000, -0.0000000000000000000, -0.0000000000000000000 ) ) ;
#217 = DATE_AND_TIME ( #223, #167 ) ;
#218 = APPROVAL_DATE_TIME ( #172, #86 ) ;
#219 = EDGE_LOOP ( 'NONE', ( #160, #61, #39, #4 ) ) ;
#220 = EDGE_CURVE ( 'NONE', #103, #20, #227, .T. ) ;
#221 = ORIENTED_EDGE ( 'NONE', *, *, #194, .T. ) ;
#222 = PERSON_AND_ORGANIZATION_ROLE ( 'creator' ) ;
#223 = CALENDAR_DATE ( 2017, 31, 1 ) ;
#224 = EDGE_LOOP ( 'NONE', ( #35, #187, #121, #71 ) ) ;
#225 = VECTOR ( 'NONE', #231, 1000.000000000000000 ) ;
#226 = VERTEX_POINT ( 'NONE', #198 ) ;
#227 = LINE ( 'NONE', #48, #166 ) ;
#228 = DIRECTION ( 'NONE',  ( 1.000000000000000000, 1.156482317317871700E-016, -0.0000000000000000000 ) ) ;
#229 = ORIENTED_EDGE ( 'NONE', *, *, #138, .F. ) ;
#230 = DIRECTION ( 'NONE',  ( -1.000000000000000000, -1.156482317317871700E-016, 0.0000000000000000000 ) ) ;
#231 = DIRECTION ( 'NONE',  ( -0.0000000000000000000, -0.0000000000000000000, -1.000000000000000000 ) ) ;
#232 = APPROVAL ( #178, 'UNSPECIFIED' ) ;
#233 = LINE ( 'NONE', #84, #89 ) ;
#234 = DIRECTION ( 'NONE',  ( 1.000000000000000000, 0.0000000000000000000, 0.0000000000000000000 ) ) ;
#235 = DIRECTION ( 'NONE',  ( -1.156482317317871700E-016, 1.000000000000000000, 0.0000000000000000000 ) ) ;
#236 = ORIENTED_EDGE ( 'NONE', *, *, #81, .F. ) ;
#237 = DIRECTION ( 'NONE',  ( 1.156482317317871500E-016, -1.000000000000000000, 0.0000000000000000000 ) ) ;
ENDSEC;
END-ISO-10303-21;
