ISO-10303-21;
HEADER;
FILE_DESCRIPTION (( 'STEP AP203' ),
    '1' );
FILE_NAME ('TTN188098-E0W.STEP',
    '2019-12-16T20:25:43',
    ( '' ),
    ( '' ),
    'SwSTEP 2.0',
    'SolidWorks 2018',
    '' );
FILE_SCHEMA (( 'CONFIG_CONTROL_DESIGN' ));
ENDSEC;

DATA;
#1 = PLANE ( 'NONE',  #239 ) ;
#2 = CC_DESIGN_PERSON_AND_ORGANIZATION_ASSIGNMENT ( #31, #112, ( #256 ) ) ;
#3 = EDGE_CURVE ( 'NONE', #172, #72, #248, .T. ) ;
#4 = DIRECTION ( 'NONE',  ( -1.000000000000000000, 0.0000000000000000000, -0.0000000000000000000 ) ) ;
#5 = PERSON_AND_ORGANIZATION ( #189, #114 ) ;
#6 = APPROVAL_STATUS ( 'not_yet_approved' ) ;
#7 = COORDINATED_UNIVERSAL_TIME_OFFSET ( 5, 0, .BEHIND. ) ;
#8 = APPROVAL_STATUS ( 'not_yet_approved' ) ;
#9 = CIRCLE ( 'NONE', #199, 25.39999999999999503 ) ;
#10 = ORIENTED_EDGE ( 'NONE', *, *, #165, .T. ) ;
#11 = PRODUCT_DEFINITION_FORMATION_WITH_SPECIFIED_SOURCE ( 'ANY', '', #145, .NOT_KNOWN. ) ;
#12 = CALENDAR_DATE ( 2019, 16, 12 ) ;
#13 = PRODUCT_DEFINITION_SHAPE ( 'NONE', 'NONE',  #45 ) ;
#14 = CARTESIAN_POINT ( 'NONE',  ( 25.15000000000002700, 3.095294784844936549E-15, 0.0000000000000000000 ) ) ;
#15 = ORIENTED_EDGE ( 'NONE', *, *, #68, .T. ) ;
#16 = DIRECTION ( 'NONE',  ( 0.0000000000000000000, 1.000000000000000000, 0.0000000000000000000 ) ) ;
#17 = AXIS2_PLACEMENT_3D ( 'NONE', #148, #84, #126 ) ;
#18 = CC_DESIGN_PERSON_AND_ORGANIZATION_ASSIGNMENT ( #171, #128, ( #45 ) ) ;
#19 = FACE_OUTER_BOUND ( 'NONE', #35, .T. ) ;
#20 = DIRECTION ( 'NONE',  ( 0.0000000000000000000, 1.000000000000000000, 0.0000000000000000000 ) ) ;
#21 = DIRECTION ( 'NONE',  ( -1.000000000000000000, 0.0000000000000000000, 0.0000000000000000000 ) ) ;
#22 = CALENDAR_DATE ( 2019, 16, 12 ) ;
#23 = SPHERICAL_SURFACE ( 'NONE', #110, 86.76999999999998181 ) ;
#24 = ADVANCED_FACE ( 'NONE', ( #19 ), #23, .T. ) ;
#25 = EDGE_CURVE ( 'NONE', #81, #105, #38, .T. ) ;
#26 = APPROVAL_ROLE ( '' ) ;
#27 = DIRECTION ( 'NONE',  ( -1.000000000000000000, 0.0000000000000000000, 0.0000000000000000000 ) ) ;
#28 = SPHERICAL_SURFACE ( 'NONE', #100, 86.76999999999998181 ) ;
#29 = MANIFOLD_SOLID_BREP ( 'TTN188104-1-solid1', #141 ) ;
#30 = VERTEX_POINT ( 'NONE', #147 ) ;
#31 = PERSON_AND_ORGANIZATION ( #189, #114 ) ;
#32 = ADVANCED_FACE ( 'NONE', ( #142 ), #47, .T. ) ;
#33 = CIRCLE ( 'NONE', #221, 25.39999999999998437 ) ;
#34 = FACE_OUTER_BOUND ( 'NONE', #97, .T. ) ;
#35 = EDGE_LOOP ( 'NONE', ( #43, #54, #226, #234 ) ) ;
#36 = EDGE_CURVE ( 'NONE', #81, #30, #159, .T. ) ;
#37 = PERSON_AND_ORGANIZATION ( #189, #114 ) ;
#38 = CIRCLE ( 'NONE', #125, 25.15000000000002700 ) ;
#39 = CARTESIAN_POINT ( 'NONE',  ( 0.0000000000000000000, 0.0000000000000000000, 0.0000000000000000000 ) ) ;
#40 = FACE_OUTER_BOUND ( 'NONE', #162, .T. ) ;
#41 = ORIENTED_EDGE ( 'NONE', *, *, #25, .T. ) ;
#42 = CARTESIAN_POINT ( 'NONE',  ( 0.0000000000000000000, 0.0000000000000000000, 0.0000000000000000000 ) ) ;
#43 = ORIENTED_EDGE ( 'NONE', *, *, #49, .F. ) ;
#44 = CARTESIAN_POINT ( 'NONE',  ( 0.0000000000000000000, 0.0000000000000000000, -2.999108106571807042 ) ) ;
#45 = PRODUCT_DEFINITION ( 'UNKNOWN', '', #11, #164 ) ;
#46 = DIRECTION ( 'NONE',  ( 1.000000000000000000, 0.0000000000000000000, 0.0000000000000000000 ) ) ;
#47 = CONICAL_SURFACE ( 'NONE', #186, 25.15000000000002700, 0.7853981633974552734 ) ;
#48 = AXIS2_PLACEMENT_3D ( 'NONE', #42, #250, #269 ) ;
#49 = EDGE_CURVE ( 'NONE', #172, #198, #150, .T. ) ;
#50 = LOCAL_TIME ( 15, 25, 43.00000000000000000, #200 ) ;
#51 = DIRECTION ( 'NONE',  ( 0.0000000000000000000, 0.0000000000000000000, -1.000000000000000000 ) ) ;
#52 = AXIS2_PLACEMENT_3D ( 'NONE', #169, #58, #223 ) ;
#53 = ORIENTED_EDGE ( 'NONE', *, *, #254, .T. ) ;
#54 = ORIENTED_EDGE ( 'NONE', *, *, #3, .T. ) ;
#55 = PERSON_AND_ORGANIZATION ( #189, #114 ) ;
#56 = DIRECTION ( 'NONE',  ( -0.0000000000000000000, -0.0000000000000000000, 1.000000000000000000 ) ) ;
#57 = ORIENTED_EDGE ( 'NONE', *, *, #127, .T. ) ;
#58 = DIRECTION ( 'NONE',  ( -0.0000000000000000000, -0.0000000000000000000, 1.000000000000000000 ) ) ;
#59 = CARTESIAN_POINT ( 'NONE',  ( 0.0000000000000000000, 25.39999999999997726, -2.999108106571807042 ) ) ;
#60 = VERTEX_POINT ( 'NONE', #143 ) ;
#61 = ORIENTED_EDGE ( 'NONE', *, *, #244, .T. ) ;
#62 = CARTESIAN_POINT ( 'NONE',  ( 0.0000000000000000000, 0.0000000000000000000, -0.2499999999999655276 ) ) ;
#63 =( NAMED_UNIT ( * ) PLANE_ANGLE_UNIT ( ) SI_UNIT ( $, .RADIAN. ) );
#64 =( GEOMETRIC_REPRESENTATION_CONTEXT ( 3 ) GLOBAL_UNCERTAINTY_ASSIGNED_CONTEXT ( ( #167 ) ) GLOBAL_UNIT_ASSIGNED_CONTEXT ( ( #175, #63, #213 ) ) REPRESENTATION_CONTEXT ( 'NONE', 'WORKASPACE' ) );
#65 = APPROVAL ( #154, 'UNSPECIFIED' ) ;
#66 = APPROVAL_PERSON_ORGANIZATION ( #149, #73, #257 ) ;
#67 = FACE_OUTER_BOUND ( 'NONE', #138, .T. ) ;
#68 = EDGE_CURVE ( 'NONE', #105, #81, #111, .T. ) ;
#69 = APPROVAL_DATE_TIME ( #117, #180 ) ;
#70 = EDGE_LOOP ( 'NONE', ( #85, #201, #173, #236 ) ) ;
#71 = PERSON_AND_ORGANIZATION ( #189, #114 ) ;
#72 = VERTEX_POINT ( 'NONE', #205 ) ;
#73 = APPROVAL ( #8, 'UNSPECIFIED' ) ;
#74 = DIRECTION ( 'NONE',  ( -0.0000000000000000000, -0.0000000000000000000, 1.000000000000000000 ) ) ;
#75 = APPROVAL_PERSON_ORGANIZATION ( #37, #180, #157 ) ;
#76 = VECTOR ( 'NONE', #121, 999.9999999999998863 ) ;
#77 = CARTESIAN_POINT ( 'NONE',  ( 0.0000000000000000000, 0.0000000000000000000, 0.0000000000000000000 ) ) ;
#78 = CARTESIAN_POINT ( 'NONE',  ( 0.0000000000000000000, 0.0000000000000000000, 79.96999999999999886 ) ) ;
#79 = DIRECTION ( 'NONE',  ( -1.000000000000000000, 0.0000000000000000000, 0.0000000000000000000 ) ) ;
#80 = COORDINATED_UNIVERSAL_TIME_OFFSET ( 5, 0, .BEHIND. ) ;
#81 = VERTEX_POINT ( 'NONE', #14 ) ;
#82 = CARTESIAN_POINT ( 'NONE',  ( 0.0000000000000000000, 0.0000000000000000000, 79.96999999999999886 ) ) ;
#83 = AXIS2_PLACEMENT_3D ( 'NONE', #98, #203, #101 ) ;
#84 = DIRECTION ( 'NONE',  ( -0.0000000000000000000, -0.0000000000000000000, 1.000000000000000000 ) ) ;
#85 = ORIENTED_EDGE ( 'NONE', *, *, #25, .F. ) ;
#86 = CARTESIAN_POINT ( 'NONE',  ( 0.0000000000000000000, 0.0000000000000000000, 0.0000000000000000000 ) ) ;
#87 = CC_DESIGN_APPROVAL ( #73, ( #256 ) ) ;
#88 = ADVANCED_FACE ( 'NONE', ( #184 ), #92, .T. ) ;
#89 = CARTESIAN_POINT ( 'NONE',  ( 0.0000000000000000000, 0.0000000000000000000, 0.0000000000000000000 ) ) ;
#90 = EDGE_CURVE ( 'NONE', #179, #198, #99, .T. ) ;
#91 = CIRCLE ( 'NONE', #103, 25.39999999999998437 ) ;
#92 = CONICAL_SURFACE ( 'NONE', #158, 25.15000000000002700, 0.7853981633974552734 ) ;
#93 = ORIENTED_EDGE ( 'NONE', *, *, #90, .F. ) ;
#94 = CC_DESIGN_PERSON_AND_ORGANIZATION_ASSIGNMENT ( #5, #192, ( #145 ) ) ;
#95 = APPROVAL_DATE_TIME ( #156, #65 ) ;
#96 = CC_DESIGN_PERSON_AND_ORGANIZATION_ASSIGNMENT ( #71, #137, ( #11 ) ) ;
#97 = EDGE_LOOP ( 'NONE', ( #211, #214, #10, #270, #118 ) ) ;
#98 = CARTESIAN_POINT ( 'NONE',  ( 0.0000000000000000000, 0.0000000000000000000, 79.96999999999999886 ) ) ;
#99 = CIRCLE ( 'NONE', #52, 25.39999999999998437 ) ;
#100 = AXIS2_PLACEMENT_3D ( 'NONE', #82, #170, #20 ) ;
#101 = DIRECTION ( 'NONE',  ( -1.224646799147353207E-16, -1.000000000000000000, 0.0000000000000000000 ) ) ;
#102 = COORDINATED_UNIVERSAL_TIME_OFFSET ( 5, 0, .BEHIND. ) ;
#103 = AXIS2_PLACEMENT_3D ( 'NONE', #152, #122, #206 ) ;
#104 = DIRECTION ( 'NONE',  ( -0.0000000000000000000, -0.0000000000000000000, 1.000000000000000000 ) ) ;
#105 = VERTEX_POINT ( 'NONE', #124 ) ;
#106 = APPLICATION_CONTEXT ( 'configuration controlled 3d designs of mechanical parts and assemblies' ) ;
#107 = CALENDAR_DATE ( 2019, 16, 12 ) ;
#108 = MECHANICAL_CONTEXT ( 'NONE', #106, 'mechanical' ) ;
#109 = DATE_TIME_ROLE ( 'classification_date' ) ;
#110 = AXIS2_PLACEMENT_3D ( 'NONE', #240, #259, #16 ) ;
#111 = CIRCLE ( 'NONE', #218, 25.15000000000002700 ) ;
#112 = PERSON_AND_ORGANIZATION_ROLE ( 'classification_officer' ) ;
#113 = LINE ( 'NONE', #174, #242 ) ;
#114 = ORGANIZATION ( 'UNSPECIFIED', 'UNSPECIFIED', '' ) ;
#115 = ORIENTED_EDGE ( 'NONE', *, *, #165, .F. ) ;
#116 = EDGE_CURVE ( 'NONE', #146, #72, #33, .T. ) ;
#117 = DATE_AND_TIME ( #12, #50 ) ;
#118 = ORIENTED_EDGE ( 'NONE', *, *, #209, .T. ) ;
#119 = AXIS2_PLACEMENT_3D ( 'NONE', #78, #258, #222 ) ;
#120 = DIRECTION ( 'NONE',  ( -1.000000000000000000, 0.0000000000000000000, 0.0000000000000000000 ) ) ;
#121 = DIRECTION ( 'NONE',  ( 0.7071067811865525687, 8.659560562354994488E-17, -0.7071067811865425767 ) ) ;
#122 = DIRECTION ( 'NONE',  ( -0.0000000000000000000, -0.0000000000000000000, 1.000000000000000000 ) ) ;
#123 = DIRECTION ( 'NONE',  ( -0.0000000000000000000, -0.0000000000000000000, 1.000000000000000000 ) ) ;
#124 = CARTESIAN_POINT ( 'NONE',  ( -25.15000000000002700, 0.0000000000000000000, 0.0000000000000000000 ) ) ;
#125 = AXIS2_PLACEMENT_3D ( 'NONE', #163, #74, #120 ) ;
#126 = DIRECTION ( 'NONE',  ( 1.000000000000000000, 0.0000000000000000000, 0.0000000000000000000 ) ) ;
#127 = EDGE_CURVE ( 'NONE', #198, #146, #91, .T. ) ;
#128 = PERSON_AND_ORGANIZATION_ROLE ( 'creator' ) ;
#129 = ORIENTED_EDGE ( 'NONE', *, *, #36, .F. ) ;
#130 = ORIENTED_EDGE ( 'NONE', *, *, #209, .F. ) ;
#131 = DIRECTION ( 'NONE',  ( 0.0000000000000000000, 0.0000000000000000000, -1.000000000000000000 ) ) ;
#132 = DIRECTION ( 'NONE',  ( 1.000000000000000000, 0.0000000000000000000, 0.0000000000000000000 ) ) ;
#133 = EDGE_CURVE ( 'NONE', #146, #60, #161, .T. ) ;
#134 = APPLICATION_PROTOCOL_DEFINITION ( 'international standard', 'config_control_design', 1994, #252 ) ;
#135 = AXIS2_PLACEMENT_3D ( 'NONE', #267, #191, #46 ) ;
#136 = LOCAL_TIME ( 15, 25, 43.00000000000000000, #7 ) ;
#137 = PERSON_AND_ORGANIZATION_ROLE ( 'creator' ) ;
#138 = EDGE_LOOP ( 'NONE', ( #15, #41 ) ) ;
#139 = SHAPE_DEFINITION_REPRESENTATION ( #13, #182 ) ;
#140 = CYLINDRICAL_SURFACE ( 'NONE', #17, 25.39999999999999503 ) ;
#141 = CLOSED_SHELL ( 'NONE', ( #32, #24, #228, #271, #232, #153, #88 ) ) ;
#142 = FACE_OUTER_BOUND ( 'NONE', #70, .T. ) ;
#143 = CARTESIAN_POINT ( 'NONE',  ( -25.39999999999999503, 3.110602869834276471E-15, -0.2499999999999655276 ) ) ;
#144 = PERSON_AND_ORGANIZATION ( #189, #114 ) ;
#145 = PRODUCT ( 'TTN188098-E0W', 'TTN188098-E0W', '', ( #108 ) ) ;
#146 = VERTEX_POINT ( 'NONE', #263 ) ;
#147 = CARTESIAN_POINT ( 'NONE',  ( 25.39999999999999503, 0.0000000000000000000, -0.2499999999999655276 ) ) ;
#148 = CARTESIAN_POINT ( 'NONE',  ( 0.0000000000000000000, 0.0000000000000000000, 0.0000000000000000000 ) ) ;
#149 = PERSON_AND_ORGANIZATION ( #189, #114 ) ;
#150 = CIRCLE ( 'NONE', #119, 86.76999999999998181 ) ;
#151 = DIRECTION ( 'NONE',  ( 1.000000000000000000, 0.0000000000000000000, 0.0000000000000000000 ) ) ;
#152 = CARTESIAN_POINT ( 'NONE',  ( 0.0000000000000000000, 0.0000000000000000000, -2.999108106571807042 ) ) ;
#153 = ADVANCED_FACE ( 'NONE', ( #190 ), #28, .T. ) ;
#154 = APPROVAL_STATUS ( 'not_yet_approved' ) ;
#155 = CIRCLE ( 'NONE', #160, 25.39999999999999503 ) ;
#156 = DATE_AND_TIME ( #264, #181 ) ;
#157 = APPROVAL_ROLE ( '' ) ;
#158 = AXIS2_PLACEMENT_3D ( 'NONE', #262, #185, #79 ) ;
#159 = LINE ( 'NONE', #245, #76 ) ;
#160 = AXIS2_PLACEMENT_3D ( 'NONE', #62, #227, #246 ) ;
#161 = LINE ( 'NONE', #224, #202 ) ;
#162 = EDGE_LOOP ( 'NONE', ( #255, #57, #237, #53, #208 ) ) ;
#163 = CARTESIAN_POINT ( 'NONE',  ( 0.0000000000000000000, 0.0000000000000000000, 0.0000000000000000000 ) ) ;
#164 = DESIGN_CONTEXT ( 'detailed design', #252, 'design' ) ;
#165 = EDGE_CURVE ( 'NONE', #72, #179, #197, .T. ) ;
#166 = DIRECTION ( 'NONE',  ( -1.000000000000000000, 0.0000000000000000000, 0.0000000000000000000 ) ) ;
#167 = UNCERTAINTY_MEASURE_WITH_UNIT (LENGTH_MEASURE( 1.000000000000000082E-05 ), #175, 'distance_accuracy_value', 'NONE');
#168 = AXIS2_PLACEMENT_3D ( 'NONE', #89, #231, #132 ) ;
#169 = CARTESIAN_POINT ( 'NONE',  ( 0.0000000000000000000, 0.0000000000000000000, -2.999108106571807042 ) ) ;
#170 = DIRECTION ( 'NONE',  ( -1.000000000000000000, 0.0000000000000000000, 0.0000000000000000000 ) ) ;
#171 = PERSON_AND_ORGANIZATION ( #189, #114 ) ;
#172 = VERTEX_POINT ( 'NONE', #210 ) ;
#173 = ORIENTED_EDGE ( 'NONE', *, *, #254, .F. ) ;
#174 = CARTESIAN_POINT ( 'NONE',  ( 25.39999999999999503, 0.0000000000000000000, 0.0000000000000000000 ) ) ;
#175 =( LENGTH_UNIT ( ) NAMED_UNIT ( * ) SI_UNIT ( .MILLI., .METRE. ) );
#176 = CC_DESIGN_DATE_AND_TIME_ASSIGNMENT ( #183, #109, ( #256 ) ) ;
#177 = DATE_TIME_ROLE ( 'creation_date' ) ;
#178 = PERSON_AND_ORGANIZATION_ROLE ( 'design_supplier' ) ;
#179 = VERTEX_POINT ( 'NONE', #249 ) ;
#180 = APPROVAL ( #6, 'UNSPECIFIED' ) ;
#181 = LOCAL_TIME ( 15, 25, 43.00000000000000000, #102 ) ;
#182 = ADVANCED_BREP_SHAPE_REPRESENTATION ( 'TTN188098-E0W', ( #29, #168 ), #64 ) ;
#183 = DATE_AND_TIME ( #22, #136 ) ;
#184 = FACE_OUTER_BOUND ( 'NONE', #215, .T. ) ;
#185 = DIRECTION ( 'NONE',  ( 0.0000000000000000000, 0.0000000000000000000, -1.000000000000000000 ) ) ;
#186 = AXIS2_PLACEMENT_3D ( 'NONE', #77, #238, #166 ) ;
#187 = CYLINDRICAL_SURFACE ( 'NONE', #48, 25.39999999999999503 ) ;
#188 = CARTESIAN_POINT ( 'NONE',  ( -25.15000000000002700, 0.0000000000000000000, 0.0000000000000000000 ) ) ;
#189 = PERSON ( 'UNSPECIFIED', 'UNSPECIFIED', 'UNSPECIFIED', ('UNSPECIFIED'), ('UNSPECIFIED'), ('UNSPECIFIED') ) ;
#190 = FACE_OUTER_BOUND ( 'NONE', #253, .T. ) ;
#191 = DIRECTION ( 'NONE',  ( -0.0000000000000000000, -0.0000000000000000000, 1.000000000000000000 ) ) ;
#192 = PERSON_AND_ORGANIZATION_ROLE ( 'design_owner' ) ;
#193 = LINE ( 'NONE', #188, #235 ) ;
#194 = CARTESIAN_POINT ( 'NONE',  ( 0.0000000000000000000, 0.0000000000000000000, -0.2499999999999655276 ) ) ;
#195 = ORIENTED_EDGE ( 'NONE', *, *, #49, .T. ) ;
#196 = SECURITY_CLASSIFICATION_LEVEL ( 'unclassified' ) ;
#197 = CIRCLE ( 'NONE', #135, 25.39999999999998437 ) ;
#198 = VERTEX_POINT ( 'NONE', #59 ) ;
#199 = AXIS2_PLACEMENT_3D ( 'NONE', #194, #51, #27 ) ;
#200 = COORDINATED_UNIVERSAL_TIME_OFFSET ( 5, 0, .BEHIND. ) ;
#201 = ORIENTED_EDGE ( 'NONE', *, *, #36, .T. ) ;
#202 = VECTOR ( 'NONE', #104, 1000.000000000000000 ) ;
#203 = DIRECTION ( 'NONE',  ( -1.000000000000000000, 1.224646799147353207E-16, 0.0000000000000000000 ) ) ;
#204 = CC_DESIGN_APPROVAL ( #180, ( #45 ) ) ;
#205 = CARTESIAN_POINT ( 'NONE',  ( -3.110602869834274893E-15, -25.39999999999997726, -2.999108106571807042 ) ) ;
#206 = DIRECTION ( 'NONE',  ( 1.000000000000000000, 0.0000000000000000000, 0.0000000000000000000 ) ) ;
#207 = DATE_AND_TIME ( #107, #217 ) ;
#208 = ORIENTED_EDGE ( 'NONE', *, *, #266, .F. ) ;
#209 = EDGE_CURVE ( 'NONE', #30, #60, #155, .T. ) ;
#210 = CARTESIAN_POINT ( 'NONE',  ( 0.0000000000000000000, 5.313130138100790934E-15, -6.799999999999986500 ) ) ;
#211 = ORIENTED_EDGE ( 'NONE', *, *, #133, .F. ) ;
#212 = ORIENTED_EDGE ( 'NONE', *, *, #3, .F. ) ;
#213 =( NAMED_UNIT ( * ) SI_UNIT ( $, .STERADIAN. ) SOLID_ANGLE_UNIT ( ) );
#214 = ORIENTED_EDGE ( 'NONE', *, *, #116, .T. ) ;
#215 = EDGE_LOOP ( 'NONE', ( #129, #261, #61, #130 ) ) ;
#216 = CC_DESIGN_APPROVAL ( #65, ( #11 ) ) ;
#217 = LOCAL_TIME ( 15, 25, 43.00000000000000000, #80 ) ;
#218 = AXIS2_PLACEMENT_3D ( 'NONE', #39, #56, #21 ) ;
#219 = LOCAL_TIME ( 15, 25, 43.00000000000000000, #225 ) ;
#220 = CC_DESIGN_SECURITY_CLASSIFICATION ( #256, ( #11 ) ) ;
#221 = AXIS2_PLACEMENT_3D ( 'NONE', #44, #123, #151 ) ;
#222 = DIRECTION ( 'NONE',  ( 0.0000000000000000000, 0.0000000000000000000, -1.000000000000000000 ) ) ;
#223 = DIRECTION ( 'NONE',  ( 1.000000000000000000, 0.0000000000000000000, 0.0000000000000000000 ) ) ;
#224 = CARTESIAN_POINT ( 'NONE',  ( -25.39999999999999503, 3.110602869834276471E-15, 0.0000000000000000000 ) ) ;
#225 = COORDINATED_UNIVERSAL_TIME_OFFSET ( 5, 0, .BEHIND. ) ;
#226 = ORIENTED_EDGE ( 'NONE', *, *, #116, .F. ) ;
#227 = DIRECTION ( 'NONE',  ( 0.0000000000000000000, 0.0000000000000000000, -1.000000000000000000 ) ) ;
#228 = ADVANCED_FACE ( 'NONE', ( #40 ), #140, .T. ) ;
#229 = APPROVAL_PERSON_ORGANIZATION ( #55, #65, #26 ) ;
#230 = DIRECTION ( 'NONE',  ( -0.0000000000000000000, -0.0000000000000000000, 1.000000000000000000 ) ) ;
#231 = DIRECTION ( 'NONE',  ( 0.0000000000000000000, 0.0000000000000000000, 1.000000000000000000 ) ) ;
#232 = ADVANCED_FACE ( 'NONE', ( #34 ), #187, .T. ) ;
#233 = APPLICATION_PROTOCOL_DEFINITION ( 'international standard', 'config_control_design', 1994, #106 ) ;
#234 = ORIENTED_EDGE ( 'NONE', *, *, #127, .F. ) ;
#235 = VECTOR ( 'NONE', #265, 999.9999999999998863 ) ;
#236 = ORIENTED_EDGE ( 'NONE', *, *, #244, .F. ) ;
#237 = ORIENTED_EDGE ( 'NONE', *, *, #133, .T. ) ;
#238 = DIRECTION ( 'NONE',  ( 0.0000000000000000000, 0.0000000000000000000, -1.000000000000000000 ) ) ;
#239 = AXIS2_PLACEMENT_3D ( 'NONE', #86, #131, #4 ) ;
#240 = CARTESIAN_POINT ( 'NONE',  ( 0.0000000000000000000, 0.0000000000000000000, 79.96999999999999886 ) ) ;
#241 = CALENDAR_DATE ( 2019, 16, 12 ) ;
#242 = VECTOR ( 'NONE', #230, 1000.000000000000000 ) ;
#243 = CC_DESIGN_PERSON_AND_ORGANIZATION_ASSIGNMENT ( #144, #178, ( #11 ) ) ;
#244 = EDGE_CURVE ( 'NONE', #105, #60, #193, .T. ) ;
#245 = CARTESIAN_POINT ( 'NONE',  ( 25.15000000000002700, 3.079986699855596628E-15, 0.0000000000000000000 ) ) ;
#246 = DIRECTION ( 'NONE',  ( -1.000000000000000000, 0.0000000000000000000, 0.0000000000000000000 ) ) ;
#247 = APPROVAL_DATE_TIME ( #268, #73 ) ;
#248 = CIRCLE ( 'NONE', #83, 86.76999999999998181 ) ;
#249 = CARTESIAN_POINT ( 'NONE',  ( 25.39999999999998437, 0.0000000000000000000, -2.999108106571807042 ) ) ;
#250 = DIRECTION ( 'NONE',  ( -0.0000000000000000000, -0.0000000000000000000, 1.000000000000000000 ) ) ;
#251 = PRODUCT_RELATED_PRODUCT_CATEGORY ( 'detail', '', ( #145 ) ) ;
#252 = APPLICATION_CONTEXT ( 'configuration controlled 3d designs of mechanical parts and assemblies' ) ;
#253 = EDGE_LOOP ( 'NONE', ( #212, #195, #93, #115 ) ) ;
#254 = EDGE_CURVE ( 'NONE', #60, #30, #9, .T. ) ;
#255 = ORIENTED_EDGE ( 'NONE', *, *, #90, .T. ) ;
#256 = SECURITY_CLASSIFICATION ( '', '', #196 ) ;
#257 = APPROVAL_ROLE ( '' ) ;
#258 = DIRECTION ( 'NONE',  ( 1.000000000000000000, 0.0000000000000000000, 0.0000000000000000000 ) ) ;
#259 = DIRECTION ( 'NONE',  ( -1.000000000000000000, 0.0000000000000000000, 0.0000000000000000000 ) ) ;
#260 = CC_DESIGN_DATE_AND_TIME_ASSIGNMENT ( #207, #177, ( #45 ) ) ;
#261 = ORIENTED_EDGE ( 'NONE', *, *, #68, .F. ) ;
#262 = CARTESIAN_POINT ( 'NONE',  ( 0.0000000000000000000, 0.0000000000000000000, 0.0000000000000000000 ) ) ;
#263 = CARTESIAN_POINT ( 'NONE',  ( -25.39999999999998437, 3.110602869834276076E-15, -2.999108106571807042 ) ) ;
#264 = CALENDAR_DATE ( 2019, 16, 12 ) ;
#265 = DIRECTION ( 'NONE',  ( -0.7071067811865525687, 0.0000000000000000000, -0.7071067811865425767 ) ) ;
#266 = EDGE_CURVE ( 'NONE', #179, #30, #113, .T. ) ;
#267 = CARTESIAN_POINT ( 'NONE',  ( 0.0000000000000000000, 0.0000000000000000000, -2.999108106571807042 ) ) ;
#268 = DATE_AND_TIME ( #241, #219 ) ;
#269 = DIRECTION ( 'NONE',  ( 1.000000000000000000, 0.0000000000000000000, 0.0000000000000000000 ) ) ;
#270 = ORIENTED_EDGE ( 'NONE', *, *, #266, .T. ) ;
#271 = ADVANCED_FACE ( 'NONE', ( #67 ), #1, .F. ) ;
ENDSEC;
END-ISO-10303-21;
