ISO-10303-21;
HEADER;
FILE_DESCRIPTION (( 'STEP AP203' ),
    '1' );
FILE_NAME ('Web Model 19730_19732.step',
    '2022-03-22T14:57:11',
    ( '' ),
    ( '' ),
    'SwSTEP 2.0',
    'SolidWorks 2021',
    '' );
FILE_SCHEMA (( 'CONFIG_CONTROL_DESIGN' ));
ENDSEC;

DATA;
#1 = CARTESIAN_POINT ( 'NONE',  ( 6.250000000000000000, 7.654042494670957606E-16, 2.000000000000000000 ) ) ;
#2 = VERTEX_POINT ( 'NONE', #15 ) ;
#3 = DIRECTION ( 'NONE',  ( -0.000000000000000000, -0.000000000000000000, -1.000000000000000000 ) ) ;
#4 = CARTESIAN_POINT ( 'NONE',  ( 0.000000000000000000, 0.000000000000000000, 0.000000000000000000 ) ) ;
#5 = CALENDAR_DATE ( 2022, 22, 3 ) ;
#6 = PERSON_AND_ORGANIZATION_ROLE ( 'creator' ) ;
#7 = DATE_AND_TIME ( #5, #126 ) ;
#8 = PRODUCT_DEFINITION_FORMATION_WITH_SPECIFIED_SOURCE ( 'ANY', '', #47, .NOT_KNOWN. ) ;
#9 = APPROVAL_STATUS ( 'not_yet_approved' ) ;
#10 = VECTOR ( 'NONE', #38, 1000.000000000000000 ) ;
#11 = ORIENTED_EDGE ( 'NONE', *, *, #97, .F. ) ;
#12 = ORIENTED_EDGE ( 'NONE', *, *, #97, .T. ) ;
#13 = VERTEX_POINT ( 'NONE', #136 ) ;
#14 = CC_DESIGN_DATE_AND_TIME_ASSIGNMENT ( #133, #75, ( #56 ) ) ;
#15 = CARTESIAN_POINT ( 'NONE',  ( -6.250000000000000000, 0.000000000000000000, 0.000000000000000000 ) ) ;
#16 = LOCAL_TIME ( 10, 57, 11.00000000000000000, #89 ) ;
#17 = DIRECTION ( 'NONE',  ( 1.000000000000000000, 0.000000000000000000, 0.000000000000000000 ) ) ;
#18 = CC_DESIGN_SECURITY_CLASSIFICATION ( #56, ( #8 ) ) ;
#19 = DATE_AND_TIME ( #108, #20 ) ;
#20 = LOCAL_TIME ( 10, 57, 11.00000000000000000, #158 ) ;
#21 = APPROVAL_STATUS ( 'not_yet_approved' ) ;
#22 = ORIENTED_EDGE ( 'NONE', *, *, #117, .T. ) ;
#23 = AXIS2_PLACEMENT_3D ( 'NONE', #69, #114, #25 ) ;
#24 = ORIENTED_EDGE ( 'NONE', *, *, #101, .T. ) ;
#25 = DIRECTION ( 'NONE',  ( 1.000000000000000000, 0.000000000000000000, 0.000000000000000000 ) ) ;
#26 = ORIENTED_EDGE ( 'NONE', *, *, #101, .F. ) ;
#27 = AXIS2_PLACEMENT_3D ( 'NONE', #53, #54, #67 ) ;
#28 = DIRECTION ( 'NONE',  ( 1.000000000000000000, 0.000000000000000000, 0.000000000000000000 ) ) ;
#29 = CARTESIAN_POINT ( 'NONE',  ( 0.000000000000000000, 0.000000000000000000, 2.000000000000000000 ) ) ;
#30 = DIRECTION ( 'NONE',  ( 0.000000000000000000, 0.000000000000000000, 1.000000000000000000 ) ) ;
#31 = EDGE_CURVE ( 'NONE', #164, #2, #130, .T. ) ;
#32 = PERSON_AND_ORGANIZATION_ROLE ( 'design_supplier' ) ;
#33 = PERSON_AND_ORGANIZATION ( #138, #71 ) ;
#34 = SECURITY_CLASSIFICATION_LEVEL ( 'unclassified' ) ;
#35 = ADVANCED_FACE ( 'NONE', ( #50 ), #79, .T. ) ;
#36 = DIRECTION ( 'NONE',  ( 0.000000000000000000, 0.000000000000000000, 1.000000000000000000 ) ) ;
#37 = CARTESIAN_POINT ( 'NONE',  ( 0.000000000000000000, 0.000000000000000000, 0.000000000000000000 ) ) ;
#38 = DIRECTION ( 'NONE',  ( -0.000000000000000000, -0.000000000000000000, -1.000000000000000000 ) ) ;
#39 = APPROVAL_PERSON_ORGANIZATION ( #60, #131, #86 ) ;
#40 = DIRECTION ( 'NONE',  ( -1.000000000000000000, 0.000000000000000000, 0.000000000000000000 ) ) ;
#41 = CC_DESIGN_PERSON_AND_ORGANIZATION_ASSIGNMENT ( #48, #132, ( #8 ) ) ;
#42 = CC_DESIGN_APPROVAL ( #131, ( #56 ) ) ;
#43 = DATE_AND_TIME ( #46, #121 ) ;
#44 = CALENDAR_DATE ( 2022, 22, 3 ) ;
#45 = AXIS2_PLACEMENT_3D ( 'NONE', #154, #116, #17 ) ;
#46 = CALENDAR_DATE ( 2022, 22, 3 ) ;
#47 = PRODUCT ( 'Web Model 19730_19732', 'Web Model 19730_19732', '', ( #102 ) ) ;
#48 = PERSON_AND_ORGANIZATION ( #138, #71 ) ;
#49 = EDGE_CURVE ( 'NONE', #2, #164, #157, .T. ) ;
#50 = FACE_OUTER_BOUND ( 'NONE', #93, .T. ) ;
#51 = APPROVAL ( #21, 'UNSPECIFIED' ) ;
#52 = CIRCLE ( 'NONE', #45, 6.250000000000000000 ) ;
#53 = CARTESIAN_POINT ( 'NONE',  ( 0.000000000000000000, 0.000000000000000000, 2.000000000000000000 ) ) ;
#54 = DIRECTION ( 'NONE',  ( 0.000000000000000000, 0.000000000000000000, 1.000000000000000000 ) ) ;
#55 = CARTESIAN_POINT ( 'NONE',  ( 6.250000000000000000, 7.654042494670957606E-16, 0.000000000000000000 ) ) ;
#56 = SECURITY_CLASSIFICATION ( '', '', #34 ) ;
#57 = DIRECTION ( 'NONE',  ( 1.000000000000000000, 0.000000000000000000, 0.000000000000000000 ) ) ;
#58 = DESIGN_CONTEXT ( 'detailed design', #139, 'design' ) ;
#59 =( NAMED_UNIT ( * ) SI_UNIT ( $, .STERADIAN. ) SOLID_ANGLE_UNIT ( ) );
#60 = PERSON_AND_ORGANIZATION ( #138, #71 ) ;
#61 =( GEOMETRIC_REPRESENTATION_CONTEXT ( 3 ) GLOBAL_UNCERTAINTY_ASSIGNED_CONTEXT ( ( #115 ) ) GLOBAL_UNIT_ASSIGNED_CONTEXT ( ( #142, #153, #59 ) ) REPRESENTATION_CONTEXT ( 'NONE', 'WORKASPACE' ) );
#62 = COORDINATED_UNIVERSAL_TIME_OFFSET ( 5, 0, .BEHIND. ) ;
#63 = AXIS2_PLACEMENT_3D ( 'NONE', #163, #125, #122 ) ;
#64 = COORDINATED_UNIVERSAL_TIME_OFFSET ( 5, 0, .BEHIND. ) ;
#65 = ADVANCED_BREP_SHAPE_REPRESENTATION ( 'Web Model 19730_19732', ( #170, #148 ), #61 ) ;
#66 = CLOSED_SHELL ( 'NONE', ( #35, #137, #73, #105 ) ) ;
#67 = DIRECTION ( 'NONE',  ( 1.000000000000000000, 0.000000000000000000, -0.000000000000000000 ) ) ;
#68 = ORIENTED_EDGE ( 'NONE', *, *, #31, .F. ) ;
#69 = CARTESIAN_POINT ( 'NONE',  ( 0.000000000000000000, 0.000000000000000000, 0.000000000000000000 ) ) ;
#70 = DIRECTION ( 'NONE',  ( 1.000000000000000000, 0.000000000000000000, -0.000000000000000000 ) ) ;
#71 = ORGANIZATION ( 'UNSPECIFIED', 'UNSPECIFIED', '' ) ;
#72 = CC_DESIGN_PERSON_AND_ORGANIZATION_ASSIGNMENT ( #118, #32, ( #8 ) ) ;
#73 = ADVANCED_FACE ( 'NONE', ( #128 ), #83, .T. ) ;
#74 = SHAPE_DEFINITION_REPRESENTATION ( #162, #65 ) ;
#75 = DATE_TIME_ROLE ( 'classification_date' ) ;
#76 = CC_DESIGN_DATE_AND_TIME_ASSIGNMENT ( #43, #172, ( #155 ) ) ;
#77 = APPLICATION_PROTOCOL_DEFINITION ( 'international standard', 'config_control_design', 1994, #139 ) ;
#78 = AXIS2_PLACEMENT_3D ( 'NONE', #29, #3, #40 ) ;
#79 = CYLINDRICAL_SURFACE ( 'NONE', #63, 6.250000000000000000 ) ;
#80 = EDGE_LOOP ( 'NONE', ( #151, #68 ) ) ;
#81 = EDGE_LOOP ( 'NONE', ( #22, #24 ) ) ;
#82 = APPLICATION_CONTEXT ( 'configuration controlled 3d designs of mechanical parts and assemblies' ) ;
#83 = PLANE ( 'NONE',  #27 ) ;
#84 = FACE_OUTER_BOUND ( 'NONE', #94, .T. ) ;
#85 = CC_DESIGN_PERSON_AND_ORGANIZATION_ASSIGNMENT ( #104, #156, ( #47 ) ) ;
#86 = APPROVAL_ROLE ( '' ) ;
#87 = AXIS2_PLACEMENT_3D ( 'NONE', #165, #140, #70 ) ;
#88 = APPROVAL_DATE_TIME ( #7, #131 ) ;
#89 = COORDINATED_UNIVERSAL_TIME_OFFSET ( 5, 0, .BEHIND. ) ;
#90 = PERSON_AND_ORGANIZATION ( #138, #71 ) ;
#91 = PERSON_AND_ORGANIZATION_ROLE ( 'classification_officer' ) ;
#92 = APPROVAL_PERSON_ORGANIZATION ( #33, #167, #120 ) ;
#93 = EDGE_LOOP ( 'NONE', ( #26, #12, #127, #110 ) ) ;
#94 = EDGE_LOOP ( 'NONE', ( #11, #149, #147, #98 ) ) ;
#95 = DIRECTION ( 'NONE',  ( 1.000000000000000000, 0.000000000000000000, 0.000000000000000000 ) ) ;
#96 = CARTESIAN_POINT ( 'NONE',  ( -6.250000000000000000, 0.000000000000000000, 2.000000000000000000 ) ) ;
#97 = EDGE_CURVE ( 'NONE', #135, #164, #174, .T. ) ;
#98 = ORIENTED_EDGE ( 'NONE', *, *, #49, .T. ) ;
#99 = PRODUCT_RELATED_PRODUCT_CATEGORY ( 'detail', '', ( #47 ) ) ;
#100 = CYLINDRICAL_SURFACE ( 'NONE', #78, 6.250000000000000000 ) ;
#101 = EDGE_CURVE ( 'NONE', #135, #13, #113, .T. ) ;
#102 = MECHANICAL_CONTEXT ( 'NONE', #82, 'mechanical' ) ;
#103 = AXIS2_PLACEMENT_3D ( 'NONE', #111, #36, #95 ) ;
#104 = PERSON_AND_ORGANIZATION ( #138, #71 ) ;
#105 = ADVANCED_FACE ( 'NONE', ( #150 ), #112, .F. ) ;
#106 = APPROVAL_STATUS ( 'not_yet_approved' ) ;
#107 = CC_DESIGN_PERSON_AND_ORGANIZATION_ASSIGNMENT ( #161, #91, ( #56 ) ) ;
#108 = CALENDAR_DATE ( 2022, 22, 3 ) ;
#109 = DATE_AND_TIME ( #44, #129 ) ;
#110 = ORIENTED_EDGE ( 'NONE', *, *, #119, .F. ) ;
#111 = CARTESIAN_POINT ( 'NONE',  ( 0.000000000000000000, 0.000000000000000000, 2.000000000000000000 ) ) ;
#112 = PLANE ( 'NONE',  #87 ) ;
#113 = CIRCLE ( 'NONE', #103, 6.250000000000000000 ) ;
#114 = DIRECTION ( 'NONE',  ( 0.000000000000000000, 0.000000000000000000, 1.000000000000000000 ) ) ;
#115 = UNCERTAINTY_MEASURE_WITH_UNIT (LENGTH_MEASURE( 1.000000000000000082E-05 ), #142, 'distance_accuracy_value', 'NONE');
#116 = DIRECTION ( 'NONE',  ( 0.000000000000000000, 0.000000000000000000, 1.000000000000000000 ) ) ;
#117 = EDGE_CURVE ( 'NONE', #13, #135, #52, .T. ) ;
#118 = PERSON_AND_ORGANIZATION ( #138, #71 ) ;
#119 = EDGE_CURVE ( 'NONE', #13, #2, #152, .T. ) ;
#120 = APPROVAL_ROLE ( '' ) ;
#121 = LOCAL_TIME ( 10, 57, 11.00000000000000000, #64 ) ;
#122 = DIRECTION ( 'NONE',  ( -1.000000000000000000, 0.000000000000000000, 0.000000000000000000 ) ) ;
#123 = VECTOR ( 'NONE', #173, 1000.000000000000000 ) ;
#124 = DIRECTION ( 'NONE',  ( 0.000000000000000000, 0.000000000000000000, 1.000000000000000000 ) ) ;
#125 = DIRECTION ( 'NONE',  ( -0.000000000000000000, -0.000000000000000000, -1.000000000000000000 ) ) ;
#126 = LOCAL_TIME ( 10, 57, 11.00000000000000000, #62 ) ;
#127 = ORIENTED_EDGE ( 'NONE', *, *, #31, .T. ) ;
#128 = FACE_OUTER_BOUND ( 'NONE', #81, .T. ) ;
#129 = LOCAL_TIME ( 10, 57, 11.00000000000000000, #144 ) ;
#130 = CIRCLE ( 'NONE', #166, 6.250000000000000000 ) ;
#131 = APPROVAL ( #9, 'UNSPECIFIED' ) ;
#132 = PERSON_AND_ORGANIZATION_ROLE ( 'creator' ) ;
#133 = DATE_AND_TIME ( #145, #16 ) ;
#134 = CC_DESIGN_APPROVAL ( #51, ( #155 ) ) ;
#135 = VERTEX_POINT ( 'NONE', #143 ) ;
#136 = CARTESIAN_POINT ( 'NONE',  ( -6.250000000000000000, 0.000000000000000000, 2.000000000000000000 ) ) ;
#137 = ADVANCED_FACE ( 'NONE', ( #84 ), #100, .T. ) ;
#138 = PERSON ( 'UNSPECIFIED', 'UNSPECIFIED', 'UNSPECIFIED', ('UNSPECIFIED'), ('UNSPECIFIED'), ('UNSPECIFIED') ) ;
#139 = APPLICATION_CONTEXT ( 'configuration controlled 3d designs of mechanical parts and assemblies' ) ;
#140 = DIRECTION ( 'NONE',  ( 0.000000000000000000, 0.000000000000000000, 1.000000000000000000 ) ) ;
#141 = CC_DESIGN_PERSON_AND_ORGANIZATION_ASSIGNMENT ( #90, #6, ( #155 ) ) ;
#142 =( LENGTH_UNIT ( ) NAMED_UNIT ( * ) SI_UNIT ( .MILLI., .METRE. ) );
#143 = CARTESIAN_POINT ( 'NONE',  ( 6.250000000000000000, 7.654042494670957606E-16, 2.000000000000000000 ) ) ;
#144 = COORDINATED_UNIVERSAL_TIME_OFFSET ( 5, 0, .BEHIND. ) ;
#145 = CALENDAR_DATE ( 2022, 22, 3 ) ;
#146 = APPROVAL_ROLE ( '' ) ;
#147 = ORIENTED_EDGE ( 'NONE', *, *, #119, .T. ) ;
#148 = AXIS2_PLACEMENT_3D ( 'NONE', #4, #30, #57 ) ;
#149 = ORIENTED_EDGE ( 'NONE', *, *, #117, .F. ) ;
#150 = FACE_OUTER_BOUND ( 'NONE', #80, .T. ) ;
#151 = ORIENTED_EDGE ( 'NONE', *, *, #49, .F. ) ;
#152 = LINE ( 'NONE', #96, #10 ) ;
#153 =( NAMED_UNIT ( * ) PLANE_ANGLE_UNIT ( ) SI_UNIT ( $, .RADIAN. ) );
#154 = CARTESIAN_POINT ( 'NONE',  ( 0.000000000000000000, 0.000000000000000000, 2.000000000000000000 ) ) ;
#155 = PRODUCT_DEFINITION ( 'UNKNOWN', '', #8, #58 ) ;
#156 = PERSON_AND_ORGANIZATION_ROLE ( 'design_owner' ) ;
#157 = CIRCLE ( 'NONE', #23, 6.250000000000000000 ) ;
#158 = COORDINATED_UNIVERSAL_TIME_OFFSET ( 5, 0, .BEHIND. ) ;
#159 = APPROVAL_DATE_TIME ( #19, #167 ) ;
#160 = APPROVAL_DATE_TIME ( #109, #51 ) ;
#161 = PERSON_AND_ORGANIZATION ( #138, #71 ) ;
#162 = PRODUCT_DEFINITION_SHAPE ( 'NONE', 'NONE',  #155 ) ;
#163 = CARTESIAN_POINT ( 'NONE',  ( 0.000000000000000000, 0.000000000000000000, 2.000000000000000000 ) ) ;
#164 = VERTEX_POINT ( 'NONE', #55 ) ;
#165 = CARTESIAN_POINT ( 'NONE',  ( 0.000000000000000000, 0.000000000000000000, 0.000000000000000000 ) ) ;
#166 = AXIS2_PLACEMENT_3D ( 'NONE', #37, #124, #28 ) ;
#167 = APPROVAL ( #106, 'UNSPECIFIED' ) ;
#168 = APPLICATION_PROTOCOL_DEFINITION ( 'international standard', 'config_control_design', 1994, #82 ) ;
#169 = PERSON_AND_ORGANIZATION ( #138, #71 ) ;
#170 = MANIFOLD_SOLID_BREP ( 'Boss-Extrude1', #66 ) ;
#171 = CC_DESIGN_APPROVAL ( #167, ( #8 ) ) ;
#172 = DATE_TIME_ROLE ( 'creation_date' ) ;
#173 = DIRECTION ( 'NONE',  ( -0.000000000000000000, -0.000000000000000000, -1.000000000000000000 ) ) ;
#174 = LINE ( 'NONE', #1, #123 ) ;
#175 = APPROVAL_PERSON_ORGANIZATION ( #169, #51, #146 ) ;
ENDSEC;
END-ISO-10303-21;
