ISO-10303-21;
HEADER;
FILE_DESCRIPTION (( 'STEP AP203' ),
    '1' );
FILE_NAME ('Web Model 19841_19888.step',
    '2022-04-06T15:19:14',
    ( 'WC' ),
    ( 'Windows Central' ),
    'SwSTEP 2.0',
    'SolidWorks 2021',
    '' );
FILE_SCHEMA (( 'CONFIG_CONTROL_DESIGN' ));
ENDSEC;

DATA;
#1 = EDGE_LOOP ( 'NONE', ( #126, #22 ) ) ;
#2 = DIRECTION ( 'NONE',  ( -0.000000000000000000, -0.000000000000000000, -1.000000000000000000 ) ) ;
#3 = CC_DESIGN_PERSON_AND_ORGANIZATION_ASSIGNMENT ( #29, #130, ( #96 ) ) ;
#4 = DIRECTION ( 'NONE',  ( 1.000000000000000000, 0.000000000000000000, 0.000000000000000000 ) ) ;
#5 = COORDINATED_UNIVERSAL_TIME_OFFSET ( 5, 0, .BEHIND. ) ;
#6 = DIRECTION ( 'NONE',  ( 1.000000000000000000, 0.000000000000000000, 0.000000000000000000 ) ) ;
#7 = APPROVAL_DATE_TIME ( #18, #101 ) ;
#8 = VERTEX_POINT ( 'NONE', #71 ) ;
#9 = DATE_AND_TIME ( #94, #65 ) ;
#10 = CARTESIAN_POINT ( 'NONE',  ( 0.000000000000000000, 0.000000000000000000, 0.000000000000000000 ) ) ;
#11 = ADVANCED_FACE ( 'NONE', ( #54 ), #46, .T. ) ;
#12 = CIRCLE ( 'NONE', #162, 25.00000000000000000 ) ;
#13 = DESIGN_CONTEXT ( 'detailed design', #19, 'design' ) ;
#14 = FACE_OUTER_BOUND ( 'NONE', #48, .T. ) ;
#15 = CARTESIAN_POINT ( 'NONE',  ( 25.00000000000000000, 3.061616997868383043E-15, 3.000000000000000000 ) ) ;
#16 = DIRECTION ( 'NONE',  ( 0.000000000000000000, 0.000000000000000000, 1.000000000000000000 ) ) ;
#17 = AXIS2_PLACEMENT_3D ( 'NONE', #149, #163, #92 ) ;
#18 = DATE_AND_TIME ( #155, #139 ) ;
#19 = APPLICATION_CONTEXT ( 'configuration controlled 3d designs of mechanical parts and assemblies' ) ;
#20 = DIRECTION ( 'NONE',  ( 0.000000000000000000, 0.000000000000000000, 1.000000000000000000 ) ) ;
#21 = DATE_AND_TIME ( #33, #38 ) ;
#22 = ORIENTED_EDGE ( 'NONE', *, *, #82, .F. ) ;
#23 = CALENDAR_DATE ( 2022, 6, 4 ) ;
#24 = PERSON_AND_ORGANIZATION ( #81, #125 ) ;
#25 = EDGE_CURVE ( 'NONE', #61, #8, #103, .T. ) ;
#26 = APPLICATION_CONTEXT ( 'configuration controlled 3d designs of mechanical parts and assemblies' ) ;
#27 = DIRECTION ( 'NONE',  ( 1.000000000000000000, 0.000000000000000000, 0.000000000000000000 ) ) ;
#28 = CARTESIAN_POINT ( 'NONE',  ( 0.000000000000000000, 0.000000000000000000, 0.000000000000000000 ) ) ;
#29 = PERSON_AND_ORGANIZATION ( #81, #125 ) ;
#30 = LINE ( 'NONE', #117, #51 ) ;
#31 = AXIS2_PLACEMENT_3D ( 'NONE', #10, #35, #133 ) ;
#32 = ORIENTED_EDGE ( 'NONE', *, *, #25, .F. ) ;
#33 = CALENDAR_DATE ( 2022, 6, 4 ) ;
#34 = ORIENTED_EDGE ( 'NONE', *, *, #49, .T. ) ;
#35 = DIRECTION ( 'NONE',  ( 0.000000000000000000, 0.000000000000000000, 1.000000000000000000 ) ) ;
#36 = DATE_TIME_ROLE ( 'creation_date' ) ;
#37 = CC_DESIGN_DATE_AND_TIME_ASSIGNMENT ( #124, #36, ( #42 ) ) ;
#38 = LOCAL_TIME ( 11, 19, 14.00000000000000000, #105 ) ;
#39 = APPROVAL_PERSON_ORGANIZATION ( #58, #83, #167 ) ;
#40 = APPROVAL_PERSON_ORGANIZATION ( #73, #101, #157 ) ;
#41 = CC_DESIGN_PERSON_AND_ORGANIZATION_ASSIGNMENT ( #24, #45, ( #53 ) ) ;
#42 = PRODUCT_DEFINITION ( 'UNKNOWN', '', #53, #13 ) ;
#43 = CYLINDRICAL_SURFACE ( 'NONE', #104, 25.00000000000000000 ) ;
#44 = CYLINDRICAL_SURFACE ( 'NONE', #95, 25.00000000000000000 ) ;
#45 = PERSON_AND_ORGANIZATION_ROLE ( 'creator' ) ;
#46 = PLANE ( 'NONE',  #175 ) ;
#47 = PERSON_AND_ORGANIZATION_ROLE ( 'design_owner' ) ;
#48 = EDGE_LOOP ( 'NONE', ( #32, #132, #174, #108 ) ) ;
#49 = EDGE_CURVE ( 'NONE', #61, #135, #64, .T. ) ;
#50 = PERSON_AND_ORGANIZATION ( #81, #125 ) ;
#51 = VECTOR ( 'NONE', #143, 1000.000000000000000 ) ;
#52 = ADVANCED_BREP_SHAPE_REPRESENTATION ( 'Web Model 19841_19888', ( #56, #31 ), #68 ) ;
#53 = PRODUCT_DEFINITION_FORMATION_WITH_SPECIFIED_SOURCE ( 'ANY', '', #98, .NOT_KNOWN. ) ;
#54 = FACE_OUTER_BOUND ( 'NONE', #170, .T. ) ;
#55 = CARTESIAN_POINT ( 'NONE',  ( 0.000000000000000000, 0.000000000000000000, 3.000000000000000000 ) ) ;
#56 = MANIFOLD_SOLID_BREP ( 'Boss-Extrude1', #151 ) ;
#57 = COORDINATED_UNIVERSAL_TIME_OFFSET ( 5, 0, .BEHIND. ) ;
#58 = PERSON_AND_ORGANIZATION ( #81, #125 ) ;
#59 = ORIENTED_EDGE ( 'NONE', *, *, #49, .F. ) ;
#60 = APPROVAL_DATE_TIME ( #21, #83 ) ;
#61 = VERTEX_POINT ( 'NONE', #168 ) ;
#62 = PERSON_AND_ORGANIZATION_ROLE ( 'design_supplier' ) ;
#63 = COORDINATED_UNIVERSAL_TIME_OFFSET ( 5, 0, .BEHIND. ) ;
#64 = CIRCLE ( 'NONE', #67, 25.00000000000000000 ) ;
#65 = LOCAL_TIME ( 11, 19, 14.00000000000000000, #136 ) ;
#66 = CC_DESIGN_PERSON_AND_ORGANIZATION_ASSIGNMENT ( #50, #93, ( #42 ) ) ;
#67 = AXIS2_PLACEMENT_3D ( 'NONE', #99, #134, #166 ) ;
#68 =( GEOMETRIC_REPRESENTATION_CONTEXT ( 3 ) GLOBAL_UNCERTAINTY_ASSIGNED_CONTEXT ( ( #150 ) ) GLOBAL_UNIT_ASSIGNED_CONTEXT ( ( #153, #69, #87 ) ) REPRESENTATION_CONTEXT ( 'NONE', 'WORKASPACE' ) );
#69 =( NAMED_UNIT ( * ) PLANE_ANGLE_UNIT ( ) SI_UNIT ( $, .RADIAN. ) );
#70 = VECTOR ( 'NONE', #156, 1000.000000000000000 ) ;
#71 = CARTESIAN_POINT ( 'NONE',  ( 25.00000000000000000, 3.061616997868383043E-15, 0.000000000000000000 ) ) ;
#72 = CARTESIAN_POINT ( 'NONE',  ( 0.000000000000000000, 0.000000000000000000, 3.000000000000000000 ) ) ;
#73 = PERSON_AND_ORGANIZATION ( #81, #125 ) ;
#74 = DIRECTION ( 'NONE',  ( 0.000000000000000000, 0.000000000000000000, 1.000000000000000000 ) ) ;
#75 = APPLICATION_PROTOCOL_DEFINITION ( 'international standard', 'config_control_design', 1994, #26 ) ;
#76 = PRODUCT_RELATED_PRODUCT_CATEGORY ( 'detail', '', ( #98 ) ) ;
#77 = VERTEX_POINT ( 'NONE', #129 ) ;
#78 = APPROVAL_STATUS ( 'not_yet_approved' ) ;
#79 = CC_DESIGN_PERSON_AND_ORGANIZATION_ASSIGNMENT ( #161, #47, ( #98 ) ) ;
#80 = SECURITY_CLASSIFICATION_LEVEL ( 'unclassified' ) ;
#81 = PERSON ( 'UNSPECIFIED', 'UNSPECIFIED', 'UNSPECIFIED', ('UNSPECIFIED'), ('UNSPECIFIED'), ('UNSPECIFIED') ) ;
#82 = EDGE_CURVE ( 'NONE', #8, #77, #164, .T. ) ;
#83 = APPROVAL ( #122, 'UNSPECIFIED' ) ;
#84 = APPROVAL_PERSON_ORGANIZATION ( #120, #140, #148 ) ;
#85 = CC_DESIGN_SECURITY_CLASSIFICATION ( #96, ( #53 ) ) ;
#86 = CARTESIAN_POINT ( 'NONE',  ( 0.000000000000000000, 0.000000000000000000, 3.000000000000000000 ) ) ;
#87 =( NAMED_UNIT ( * ) SI_UNIT ( $, .STERADIAN. ) SOLID_ANGLE_UNIT ( ) );
#88 = CALENDAR_DATE ( 2022, 6, 4 ) ;
#89 = DIRECTION ( 'NONE',  ( -1.000000000000000000, 0.000000000000000000, 0.000000000000000000 ) ) ;
#90 = ORIENTED_EDGE ( 'NONE', *, *, #111, .F. ) ;
#91 = MECHANICAL_CONTEXT ( 'NONE', #26, 'mechanical' ) ;
#92 = DIRECTION ( 'NONE',  ( 1.000000000000000000, 0.000000000000000000, -0.000000000000000000 ) ) ;
#93 = PERSON_AND_ORGANIZATION_ROLE ( 'creator' ) ;
#94 = CALENDAR_DATE ( 2022, 6, 4 ) ;
#95 = AXIS2_PLACEMENT_3D ( 'NONE', #86, #142, #89 ) ;
#96 = SECURITY_CLASSIFICATION ( '', '', #80 ) ;
#97 = CC_DESIGN_PERSON_AND_ORGANIZATION_ASSIGNMENT ( #138, #62, ( #53 ) ) ;
#98 = PRODUCT ( 'Web Model 19841_19888', 'Web Model 19841_19888', '', ( #91 ) ) ;
#99 = CARTESIAN_POINT ( 'NONE',  ( 0.000000000000000000, 0.000000000000000000, 3.000000000000000000 ) ) ;
#100 = FACE_OUTER_BOUND ( 'NONE', #1, .T. ) ;
#101 = APPROVAL ( #102, 'UNSPECIFIED' ) ;
#102 = APPROVAL_STATUS ( 'not_yet_approved' ) ;
#103 = LINE ( 'NONE', #15, #70 ) ;
#104 = AXIS2_PLACEMENT_3D ( 'NONE', #55, #2, #165 ) ;
#105 = COORDINATED_UNIVERSAL_TIME_OFFSET ( 5, 0, .BEHIND. ) ;
#106 = DIRECTION ( 'NONE',  ( 1.000000000000000000, 0.000000000000000000, -0.000000000000000000 ) ) ;
#107 = CC_DESIGN_APPROVAL ( #83, ( #96 ) ) ;
#108 = ORIENTED_EDGE ( 'NONE', *, *, #141, .T. ) ;
#109 = APPROVAL_DATE_TIME ( #9, #140 ) ;
#110 = APPLICATION_PROTOCOL_DEFINITION ( 'international standard', 'config_control_design', 1994, #19 ) ;
#111 = EDGE_CURVE ( 'NONE', #135, #77, #30, .T. ) ;
#112 = CC_DESIGN_APPROVAL ( #140, ( #53 ) ) ;
#113 = AXIS2_PLACEMENT_3D ( 'NONE', #28, #74, #27 ) ;
#114 = CC_DESIGN_DATE_AND_TIME_ASSIGNMENT ( #127, #145, ( #96 ) ) ;
#115 = ADVANCED_FACE ( 'NONE', ( #119 ), #43, .T. ) ;
#116 = ADVANCED_FACE ( 'NONE', ( #14 ), #44, .T. ) ;
#117 = CARTESIAN_POINT ( 'NONE',  ( -25.00000000000000000, 0.000000000000000000, 3.000000000000000000 ) ) ;
#118 = CC_DESIGN_APPROVAL ( #101, ( #42 ) ) ;
#119 = FACE_OUTER_BOUND ( 'NONE', #160, .T. ) ;
#120 = PERSON_AND_ORGANIZATION ( #81, #125 ) ;
#121 = DIRECTION ( 'NONE',  ( 0.000000000000000000, 0.000000000000000000, 1.000000000000000000 ) ) ;
#122 = APPROVAL_STATUS ( 'not_yet_approved' ) ;
#123 = ORIENTED_EDGE ( 'NONE', *, *, #173, .T. ) ;
#124 = DATE_AND_TIME ( #23, #171 ) ;
#125 = ORGANIZATION ( 'UNSPECIFIED', 'UNSPECIFIED', '' ) ;
#126 = ORIENTED_EDGE ( 'NONE', *, *, #141, .F. ) ;
#127 = DATE_AND_TIME ( #88, #144 ) ;
#128 = PRODUCT_DEFINITION_SHAPE ( 'NONE', 'NONE',  #42 ) ;
#129 = CARTESIAN_POINT ( 'NONE',  ( -25.00000000000000000, 0.000000000000000000, 0.000000000000000000 ) ) ;
#130 = PERSON_AND_ORGANIZATION_ROLE ( 'classification_officer' ) ;
#131 = PLANE ( 'NONE',  #17 ) ;
#132 = ORIENTED_EDGE ( 'NONE', *, *, #173, .F. ) ;
#133 = DIRECTION ( 'NONE',  ( 1.000000000000000000, 0.000000000000000000, 0.000000000000000000 ) ) ;
#134 = DIRECTION ( 'NONE',  ( 0.000000000000000000, 0.000000000000000000, 1.000000000000000000 ) ) ;
#135 = VERTEX_POINT ( 'NONE', #146 ) ;
#136 = COORDINATED_UNIVERSAL_TIME_OFFSET ( 5, 0, .BEHIND. ) ;
#137 = AXIS2_PLACEMENT_3D ( 'NONE', #158, #20, #4 ) ;
#138 = PERSON_AND_ORGANIZATION ( #81, #125 ) ;
#139 = LOCAL_TIME ( 11, 19, 14.00000000000000000, #63 ) ;
#140 = APPROVAL ( #78, 'UNSPECIFIED' ) ;
#141 = EDGE_CURVE ( 'NONE', #77, #8, #169, .T. ) ;
#142 = DIRECTION ( 'NONE',  ( -0.000000000000000000, -0.000000000000000000, -1.000000000000000000 ) ) ;
#143 = DIRECTION ( 'NONE',  ( -0.000000000000000000, -0.000000000000000000, -1.000000000000000000 ) ) ;
#144 = LOCAL_TIME ( 11, 19, 14.00000000000000000, #5 ) ;
#145 = DATE_TIME_ROLE ( 'classification_date' ) ;
#146 = CARTESIAN_POINT ( 'NONE',  ( -25.00000000000000000, 0.000000000000000000, 3.000000000000000000 ) ) ;
#147 = ORIENTED_EDGE ( 'NONE', *, *, #82, .T. ) ;
#148 = APPROVAL_ROLE ( '' ) ;
#149 = CARTESIAN_POINT ( 'NONE',  ( 0.000000000000000000, 0.000000000000000000, 0.000000000000000000 ) ) ;
#150 = UNCERTAINTY_MEASURE_WITH_UNIT (LENGTH_MEASURE( 1.000000000000000082E-05 ), #153, 'distance_accuracy_value', 'NONE');
#151 = CLOSED_SHELL ( 'NONE', ( #115, #116, #11, #154 ) ) ;
#152 = CARTESIAN_POINT ( 'NONE',  ( 0.000000000000000000, 0.000000000000000000, 3.000000000000000000 ) ) ;
#153 =( LENGTH_UNIT ( ) NAMED_UNIT ( * ) SI_UNIT ( .MILLI., .METRE. ) );
#154 = ADVANCED_FACE ( 'NONE', ( #100 ), #131, .F. ) ;
#155 = CALENDAR_DATE ( 2022, 6, 4 ) ;
#156 = DIRECTION ( 'NONE',  ( -0.000000000000000000, -0.000000000000000000, -1.000000000000000000 ) ) ;
#157 = APPROVAL_ROLE ( '' ) ;
#158 = CARTESIAN_POINT ( 'NONE',  ( 0.000000000000000000, 0.000000000000000000, 0.000000000000000000 ) ) ;
#159 = ORIENTED_EDGE ( 'NONE', *, *, #25, .T. ) ;
#160 = EDGE_LOOP ( 'NONE', ( #59, #159, #147, #90 ) ) ;
#161 = PERSON_AND_ORGANIZATION ( #81, #125 ) ;
#162 = AXIS2_PLACEMENT_3D ( 'NONE', #152, #16, #6 ) ;
#163 = DIRECTION ( 'NONE',  ( 0.000000000000000000, 0.000000000000000000, 1.000000000000000000 ) ) ;
#164 = CIRCLE ( 'NONE', #137, 25.00000000000000000 ) ;
#165 = DIRECTION ( 'NONE',  ( -1.000000000000000000, 0.000000000000000000, 0.000000000000000000 ) ) ;
#166 = DIRECTION ( 'NONE',  ( 1.000000000000000000, 0.000000000000000000, 0.000000000000000000 ) ) ;
#167 = APPROVAL_ROLE ( '' ) ;
#168 = CARTESIAN_POINT ( 'NONE',  ( 25.00000000000000000, 3.061616997868383043E-15, 3.000000000000000000 ) ) ;
#169 = CIRCLE ( 'NONE', #113, 25.00000000000000000 ) ;
#170 = EDGE_LOOP ( 'NONE', ( #123, #34 ) ) ;
#171 = LOCAL_TIME ( 11, 19, 14.00000000000000000, #57 ) ;
#172 = SHAPE_DEFINITION_REPRESENTATION ( #128, #52 ) ;
#173 = EDGE_CURVE ( 'NONE', #135, #61, #12, .T. ) ;
#174 = ORIENTED_EDGE ( 'NONE', *, *, #111, .T. ) ;
#175 = AXIS2_PLACEMENT_3D ( 'NONE', #72, #121, #106 ) ;
ENDSEC;
END-ISO-10303-21;
