ISO-10303-21;
HEADER;
FILE_DESCRIPTION (( 'STEP AP203' ),
    '1' );
FILE_NAME ('Web Model 31416_31416.step',
    '2017-02-21T16:33:57',
    ( '' ),
    ( '' ),
    'SwSTEP 2.0',
    'SolidWorks 2016',
    '' );
FILE_SCHEMA (( 'CONFIG_CONTROL_DESIGN' ));
ENDSEC;

DATA;
#1 = LOCAL_TIME ( 11, 33, 57.00000000000000000, #150 ) ;
#2 = CC_DESIGN_PERSON_AND_ORGANIZATION_ASSIGNMENT ( #39, #82, ( #204 ) ) ;
#3 = ORIENTED_EDGE ( 'NONE', *, *, #214, .T. ) ;
#4 = ORIENTED_EDGE ( 'NONE', *, *, #57, .T. ) ;
#5 =( LENGTH_UNIT ( ) NAMED_UNIT ( * ) SI_UNIT ( .MILLI., .METRE. ) );
#6 = DATE_AND_TIME ( #19, #165 ) ;
#7 = DIRECTION ( 'NONE',  ( -0.0000000000000000000, -0.0000000000000000000, -1.000000000000000000 ) ) ;
#8 = DIRECTION ( 'NONE',  ( -0.0000000000000000000, -0.0000000000000000000, -1.000000000000000000 ) ) ;
#9 = CALENDAR_DATE ( 2017, 21, 2 ) ;
#10 = EDGE_CURVE ( 'NONE', #120, #54, #93, .T. ) ;
#11 = CARTESIAN_POINT ( 'NONE',  ( 6.000000000000006200, -9.500000000000008900, -1.000000000000000000 ) ) ;
#12 = EDGE_LOOP ( 'NONE', ( #76, #14, #235, #189 ) ) ;
#13 = CARTESIAN_POINT ( 'NONE',  ( 6.000000000000005300, 9.499999999999994700, 1.000000000000000000 ) ) ;
#14 = ORIENTED_EDGE ( 'NONE', *, *, #113, .F. ) ;
#15 = APPLICATION_PROTOCOL_DEFINITION ( 'international standard', 'config_control_design', 1994, #35 ) ;
#16 = PERSON_AND_ORGANIZATION ( #24, #226 ) ;
#17 = ADVANCED_FACE ( 'NONE', ( #193 ), #105, .F. ) ;
#18 = PRODUCT_DEFINITION ( 'UNKNOWN', '', #77, #50 ) ;
#19 = CALENDAR_DATE ( 2017, 21, 2 ) ;
#20 = ADVANCED_BREP_SHAPE_REPRESENTATION ( 'Web Model 31416_31416', ( #131, #227 ), #162 ) ;
#21 = VERTEX_POINT ( 'NONE', #161 ) ;
#22 = LINE ( 'NONE', #122, #74 ) ;
#23 = EDGE_CURVE ( 'NONE', #21, #47, #220, .T. ) ;
#24 = PERSON ( 'UNSPECIFIED', 'UNSPECIFIED', 'UNSPECIFIED', ('UNSPECIFIED'), ('UNSPECIFIED'), ('UNSPECIFIED') ) ;
#25 = APPROVAL_PERSON_ORGANIZATION ( #217, #31, #49 ) ;
#26 = CARTESIAN_POINT ( 'NONE',  ( -5.999999999999994700, 9.499999999999994700, 1.000000000000000000 ) ) ;
#27 = APPROVAL_DATE_TIME ( #116, #88 ) ;
#28 = DIRECTION ( 'NONE',  ( 1.000000000000000000, 0.0000000000000000000, 0.0000000000000000000 ) ) ;
#29 = CARTESIAN_POINT ( 'NONE',  ( -5.999999999999994700, 9.499999999999994700, -1.000000000000000000 ) ) ;
#30 = MECHANICAL_CONTEXT ( 'NONE', #194, 'mechanical' ) ;
#31 = APPROVAL ( #98, 'UNSPECIFIED' ) ;
#32 = DIRECTION ( 'NONE',  ( -0.0000000000000000000, -0.0000000000000000000, -1.000000000000000000 ) ) ;
#33 = DIRECTION ( 'NONE',  ( 1.000000000000000000, 0.0000000000000000000, 0.0000000000000000000 ) ) ;
#34 = DIRECTION ( 'NONE',  ( 1.000000000000000000, 0.0000000000000000000, 0.0000000000000000000 ) ) ;
#35 = APPLICATION_CONTEXT ( 'configuration controlled 3d designs of mechanical parts and assemblies' ) ;
#36 = ORIENTED_EDGE ( 'NONE', *, *, #113, .T. ) ;
#37 = LOCAL_TIME ( 11, 33, 57.00000000000000000, #192 ) ;
#38 = ADVANCED_FACE ( 'NONE', ( #78 ), #51, .F. ) ;
#39 = PERSON_AND_ORGANIZATION ( #24, #226 ) ;
#40 = PERSON_AND_ORGANIZATION ( #24, #226 ) ;
#41 = VECTOR ( 'NONE', #223, 1000.000000000000000 ) ;
#42 = LINE ( 'NONE', #153, #183 ) ;
#43 = APPROVAL_PERSON_ORGANIZATION ( #40, #88, #67 ) ;
#44 = CC_DESIGN_APPROVAL ( #31, ( #18 ) ) ;
#45 = ORIENTED_EDGE ( 'NONE', *, *, #184, .T. ) ;
#46 = PLANE ( 'NONE',  #177 ) ;
#47 = VERTEX_POINT ( 'NONE', #13 ) ;
#48 = CARTESIAN_POINT ( 'NONE',  ( -5.999999999999994700, 9.499999999999994700, 1.000000000000000000 ) ) ;
#49 = APPROVAL_ROLE ( '' ) ;
#50 = DESIGN_CONTEXT ( 'detailed design', #35, 'design' ) ;
#51 = PLANE ( 'NONE',  #80 ) ;
#52 = PRODUCT_DEFINITION_SHAPE ( 'NONE', 'NONE',  #18 ) ;
#53 = VECTOR ( 'NONE', #96, 1000.000000000000000 ) ;
#54 = VERTEX_POINT ( 'NONE', #29 ) ;
#55 = CC_DESIGN_PERSON_AND_ORGANIZATION_ASSIGNMENT ( #75, #174, ( #18 ) ) ;
#56 = DATE_AND_TIME ( #236, #166 ) ;
#57 = EDGE_CURVE ( 'NONE', #120, #90, #111, .T. ) ;
#58 = DATE_AND_TIME ( #9, #37 ) ;
#59 = AXIS2_PLACEMENT_3D ( 'NONE', #48, #160, #167 ) ;
#60 = COORDINATED_UNIVERSAL_TIME_OFFSET ( 5, 0, .BEHIND. ) ;
#61 = CARTESIAN_POINT ( 'NONE',  ( -5.999999999999992000, -9.500000000000008900, 1.000000000000000000 ) ) ;
#62 = DATE_TIME_ROLE ( 'creation_date' ) ;
#63 = DIRECTION ( 'NONE',  ( 0.0000000000000000000, 1.000000000000000000, 0.0000000000000000000 ) ) ;
#64 = CC_DESIGN_DATE_AND_TIME_ASSIGNMENT ( #211, #62, ( #18 ) ) ;
#65 = FACE_OUTER_BOUND ( 'NONE', #187, .T. ) ;
#66 = FACE_OUTER_BOUND ( 'NONE', #180, .T. ) ;
#67 = APPROVAL_ROLE ( '' ) ;
#68 = EDGE_CURVE ( 'NONE', #178, #54, #42, .T. ) ;
#69 = DIRECTION ( 'NONE',  ( 1.369518533665900100E-016, -1.000000000000000000, 0.0000000000000000000 ) ) ;
#70 = PLANE ( 'NONE',  #156 ) ;
#71 = DATE_TIME_ROLE ( 'classification_date' ) ;
#72 = LOCAL_TIME ( 11, 33, 57.00000000000000000, #221 ) ;
#73 = CLOSED_SHELL ( 'NONE', ( #107, #17, #175, #126, #195, #38 ) ) ;
#74 = VECTOR ( 'NONE', #28, 1000.000000000000000 ) ;
#75 = PERSON_AND_ORGANIZATION ( #24, #226 ) ;
#76 = ORIENTED_EDGE ( 'NONE', *, *, #181, .F. ) ;
#77 = PRODUCT_DEFINITION_FORMATION_WITH_SPECIFIED_SOURCE ( 'ANY', '', #204, .NOT_KNOWN. ) ;
#78 = FACE_OUTER_BOUND ( 'NONE', #12, .T. ) ;
#79 = CARTESIAN_POINT ( 'NONE',  ( 0.0000000000000000000, 0.0000000000000000000, 1.000000000000000000 ) ) ;
#80 = AXIS2_PLACEMENT_3D ( 'NONE', #140, #158, #33 ) ;
#81 = CARTESIAN_POINT ( 'NONE',  ( 6.000000000000006200, -9.500000000000008900, 1.000000000000000000 ) ) ;
#82 = PERSON_AND_ORGANIZATION_ROLE ( 'design_owner' ) ;
#83 = VECTOR ( 'NONE', #207, 1000.000000000000000 ) ;
#84 = APPROVAL_DATE_TIME ( #6, #117 ) ;
#85 = PERSON_AND_ORGANIZATION_ROLE ( 'classification_officer' ) ;
#86 = CARTESIAN_POINT ( 'NONE',  ( -5.999999999999992000, -9.500000000000008900, 1.000000000000000000 ) ) ;
#87 = LINE ( 'NONE', #155, #41 ) ;
#88 = APPROVAL ( #102, 'UNSPECIFIED' ) ;
#89 = CC_DESIGN_PERSON_AND_ORGANIZATION_ASSIGNMENT ( #185, #85, ( #139 ) ) ;
#90 = VERTEX_POINT ( 'NONE', #86 ) ;
#91 = LINE ( 'NONE', #26, #53 ) ;
#92 = ORIENTED_EDGE ( 'NONE', *, *, #10, .T. ) ;
#93 = LINE ( 'NONE', #135, #208 ) ;
#94 = LINE ( 'NONE', #168, #222 ) ;
#95 = ORIENTED_EDGE ( 'NONE', *, *, #68, .T. ) ;
#96 = DIRECTION ( 'NONE',  ( -1.000000000000000000, -0.0000000000000000000, -0.0000000000000000000 ) ) ;
#97 = PLANE ( 'NONE',  #109 ) ;
#98 = APPROVAL_STATUS ( 'not_yet_approved' ) ;
#99 = CARTESIAN_POINT ( 'NONE',  ( -5.999999999999992000, -9.500000000000008900, -1.000000000000000000 ) ) ;
#100 = EDGE_LOOP ( 'NONE', ( #95, #154, #147, #143 ) ) ;
#101 = CC_DESIGN_APPROVAL ( #88, ( #77 ) ) ;
#102 = APPROVAL_STATUS ( 'not_yet_approved' ) ;
#103 = CC_DESIGN_DATE_AND_TIME_ASSIGNMENT ( #56, #71, ( #139 ) ) ;
#104 = VECTOR ( 'NONE', #125, 1000.000000000000000 ) ;
#105 = PLANE ( 'NONE',  #59 ) ;
#106 = DIRECTION ( 'NONE',  ( 0.0000000000000000000, 0.0000000000000000000, 1.000000000000000000 ) ) ;
#107 = ADVANCED_FACE ( 'NONE', ( #65 ), #97, .F. ) ;
#108 = VERTEX_POINT ( 'NONE', #234 ) ;
#109 = AXIS2_PLACEMENT_3D ( 'NONE', #186, #144, #124 ) ;
#110 = LINE ( 'NONE', #99, #104 ) ;
#111 = LINE ( 'NONE', #224, #148 ) ;
#112 = FACE_OUTER_BOUND ( 'NONE', #212, .T. ) ;
#113 = EDGE_CURVE ( 'NONE', #108, #130, #110, .T. ) ;
#114 = ORIENTED_EDGE ( 'NONE', *, *, #57, .F. ) ;
#115 = CC_DESIGN_PERSON_AND_ORGANIZATION_ASSIGNMENT ( #142, #171, ( #77 ) ) ;
#116 = DATE_AND_TIME ( #176, #72 ) ;
#117 = APPROVAL ( #127, 'UNSPECIFIED' ) ;
#118 = APPROVAL_ROLE ( '' ) ;
#119 = DIRECTION ( 'NONE',  ( 1.000000000000000000, 0.0000000000000000000, 0.0000000000000000000 ) ) ;
#120 = VERTEX_POINT ( 'NONE', #210 ) ;
#121 = DIRECTION ( 'NONE',  ( 1.000000000000000000, 1.369518533665900100E-016, -0.0000000000000000000 ) ) ;
#122 = CARTESIAN_POINT ( 'NONE',  ( -5.999999999999992000, -9.500000000000008900, 1.000000000000000000 ) ) ;
#123 = PERSON_AND_ORGANIZATION ( #24, #226 ) ;
#124 = DIRECTION ( 'NONE',  ( 4.565061778886333600E-017, -1.000000000000000000, 0.0000000000000000000 ) ) ;
#125 = DIRECTION ( 'NONE',  ( 1.000000000000000000, 0.0000000000000000000, 0.0000000000000000000 ) ) ;
#126 = ADVANCED_FACE ( 'NONE', ( #66 ), #190, .F. ) ;
#127 = APPROVAL_STATUS ( 'not_yet_approved' ) ;
#128 = CC_DESIGN_PERSON_AND_ORGANIZATION_ASSIGNMENT ( #16, #229, ( #77 ) ) ;
#129 = CC_DESIGN_APPROVAL ( #117, ( #139 ) ) ;
#130 = VERTEX_POINT ( 'NONE', #11 ) ;
#131 = MANIFOLD_SOLID_BREP ( 'Boss-Extrude1', #73 ) ;
#132 = ORIENTED_EDGE ( 'NONE', *, *, #179, .T. ) ;
#133 = AXIS2_PLACEMENT_3D ( 'NONE', #157, #63, #228 ) ;
#134 = EDGE_LOOP ( 'NONE', ( #136, #225, #114, #92 ) ) ;
#135 = CARTESIAN_POINT ( 'NONE',  ( -5.999999999999994700, 9.499999999999994700, 1.000000000000000000 ) ) ;
#136 = ORIENTED_EDGE ( 'NONE', *, *, #202, .T. ) ;
#137 = DIRECTION ( 'NONE',  ( -1.369518533665900100E-016, 1.000000000000000000, 0.0000000000000000000 ) ) ;
#138 = CARTESIAN_POINT ( 'NONE',  ( -5.999999999999994700, 9.499999999999994700, 1.000000000000000000 ) ) ;
#139 = SECURITY_CLASSIFICATION ( '', '', #198 ) ;
#140 = CARTESIAN_POINT ( 'NONE',  ( 0.0000000000000000000, 0.0000000000000000000, -1.000000000000000000 ) ) ;
#141 = CC_DESIGN_SECURITY_CLASSIFICATION ( #139, ( #77 ) ) ;
#142 = PERSON_AND_ORGANIZATION ( #24, #226 ) ;
#143 = ORIENTED_EDGE ( 'NONE', *, *, #182, .T. ) ;
#144 = DIRECTION ( 'NONE',  ( -1.000000000000000000, -4.565061778886333600E-017, 0.0000000000000000000 ) ) ;
#145 = LINE ( 'NONE', #209, #83 ) ;
#146 = EDGE_CURVE ( 'NONE', #21, #130, #219, .T. ) ;
#147 = ORIENTED_EDGE ( 'NONE', *, *, #214, .F. ) ;
#148 = VECTOR ( 'NONE', #69, 1000.000000000000000 ) ;
#149 = ORIENTED_EDGE ( 'NONE', *, *, #179, .F. ) ;
#150 = COORDINATED_UNIVERSAL_TIME_OFFSET ( 5, 0, .BEHIND. ) ;
#151 = PRODUCT_RELATED_PRODUCT_CATEGORY ( 'detail', '', ( #204 ) ) ;
#152 = DIRECTION ( 'NONE',  ( -0.0000000000000000000, -0.0000000000000000000, -1.000000000000000000 ) ) ;
#153 = CARTESIAN_POINT ( 'NONE',  ( -5.999999999999994700, 9.499999999999994700, -1.000000000000000000 ) ) ;
#154 = ORIENTED_EDGE ( 'NONE', *, *, #10, .F. ) ;
#155 = CARTESIAN_POINT ( 'NONE',  ( -5.999999999999994700, 9.499999999999994700, -1.000000000000000000 ) ) ;
#156 = AXIS2_PLACEMENT_3D ( 'NONE', #138, #121, #137 ) ;
#157 = CARTESIAN_POINT ( 'NONE',  ( -5.999999999999992000, -9.500000000000008900, 1.000000000000000000 ) ) ;
#158 = DIRECTION ( 'NONE',  ( -0.0000000000000000000, 0.0000000000000000000, 1.000000000000000000 ) ) ;
#159 = CALENDAR_DATE ( 2017, 21, 2 ) ;
#160 = DIRECTION ( 'NONE',  ( 0.0000000000000000000, -1.000000000000000000, 0.0000000000000000000 ) ) ;
#161 = CARTESIAN_POINT ( 'NONE',  ( 6.000000000000006200, -9.500000000000008900, 1.000000000000000000 ) ) ;
#162 =( GEOMETRIC_REPRESENTATION_CONTEXT ( 3 ) GLOBAL_UNCERTAINTY_ASSIGNED_CONTEXT ( ( #213 ) ) GLOBAL_UNIT_ASSIGNED_CONTEXT ( ( #5, #218, #196 ) ) REPRESENTATION_CONTEXT ( 'NONE', 'WORKASPACE' ) );
#163 = APPROVAL_DATE_TIME ( #58, #31 ) ;
#164 = CARTESIAN_POINT ( 'NONE',  ( 0.0000000000000000000, 0.0000000000000000000, 0.0000000000000000000 ) ) ;
#165 = LOCAL_TIME ( 11, 33, 57.00000000000000000, #60 ) ;
#166 = LOCAL_TIME ( 11, 33, 57.00000000000000000, #216 ) ;
#167 = DIRECTION ( 'NONE',  ( 0.0000000000000000000, -0.0000000000000000000, -1.000000000000000000 ) ) ;
#168 = CARTESIAN_POINT ( 'NONE',  ( 6.000000000000005300, 9.499999999999994700, 1.000000000000000000 ) ) ;
#169 = CARTESIAN_POINT ( 'NONE',  ( 6.000000000000005300, 9.499999999999994700, -1.000000000000000000 ) ) ;
#170 = VECTOR ( 'NONE', #32, 1000.000000000000000 ) ;
#171 = PERSON_AND_ORGANIZATION_ROLE ( 'creator' ) ;
#172 = FACE_OUTER_BOUND ( 'NONE', #134, .T. ) ;
#173 = APPROVAL_PERSON_ORGANIZATION ( #123, #117, #118 ) ;
#174 = PERSON_AND_ORGANIZATION_ROLE ( 'creator' ) ;
#175 = ADVANCED_FACE ( 'NONE', ( #172 ), #70, .F. ) ;
#176 = CALENDAR_DATE ( 2017, 21, 2 ) ;
#177 = AXIS2_PLACEMENT_3D ( 'NONE', #79, #188, #119 ) ;
#178 = VERTEX_POINT ( 'NONE', #169 ) ;
#179 = EDGE_CURVE ( 'NONE', #90, #21, #22, .T. ) ;
#180 = EDGE_LOOP ( 'NONE', ( #36, #201, #149, #45 ) ) ;
#181 = EDGE_CURVE ( 'NONE', #130, #178, #145, .T. ) ;
#182 = EDGE_CURVE ( 'NONE', #47, #178, #94, .T. ) ;
#183 = VECTOR ( 'NONE', #233, 1000.000000000000000 ) ;
#184 = EDGE_CURVE ( 'NONE', #90, #108, #237, .T. ) ;
#185 = PERSON_AND_ORGANIZATION ( #24, #226 ) ;
#186 = CARTESIAN_POINT ( 'NONE',  ( 6.000000000000005300, 9.499999999999994700, 1.000000000000000000 ) ) ;
#187 = EDGE_LOOP ( 'NONE', ( #199, #230, #205, #200 ) ) ;
#188 = DIRECTION ( 'NONE',  ( -0.0000000000000000000, 0.0000000000000000000, 1.000000000000000000 ) ) ;
#189 = ORIENTED_EDGE ( 'NONE', *, *, #68, .F. ) ;
#190 = PLANE ( 'NONE',  #133 ) ;
#191 = DIRECTION ( 'NONE',  ( -4.565061778886333600E-017, 1.000000000000000000, -0.0000000000000000000 ) ) ;
#192 = COORDINATED_UNIVERSAL_TIME_OFFSET ( 5, 0, .BEHIND. ) ;
#193 = FACE_OUTER_BOUND ( 'NONE', #100, .T. ) ;
#194 = APPLICATION_CONTEXT ( 'configuration controlled 3d designs of mechanical parts and assemblies' ) ;
#195 = ADVANCED_FACE ( 'NONE', ( #112 ), #46, .T. ) ;
#196 =( NAMED_UNIT ( * ) SI_UNIT ( $, .STERADIAN. ) SOLID_ANGLE_UNIT ( ) );
#197 = SHAPE_DEFINITION_REPRESENTATION ( #52, #20 ) ;
#198 = SECURITY_CLASSIFICATION_LEVEL ( 'unclassified' ) ;
#199 = ORIENTED_EDGE ( 'NONE', *, *, #181, .T. ) ;
#200 = ORIENTED_EDGE ( 'NONE', *, *, #146, .T. ) ;
#201 = ORIENTED_EDGE ( 'NONE', *, *, #146, .F. ) ;
#202 = EDGE_CURVE ( 'NONE', #54, #108, #87, .T. ) ;
#203 = VECTOR ( 'NONE', #152, 1000.000000000000000 ) ;
#204 = PRODUCT ( 'Web Model 31416_31416', 'Web Model 31416_31416', '', ( #30 ) ) ;
#205 = ORIENTED_EDGE ( 'NONE', *, *, #23, .F. ) ;
#206 = ORIENTED_EDGE ( 'NONE', *, *, #23, .T. ) ;
#207 = DIRECTION ( 'NONE',  ( -4.565061778886333600E-017, 1.000000000000000000, -0.0000000000000000000 ) ) ;
#208 = VECTOR ( 'NONE', #7, 1000.000000000000000 ) ;
#209 = CARTESIAN_POINT ( 'NONE',  ( 6.000000000000005300, 9.499999999999994700, -1.000000000000000000 ) ) ;
#210 = CARTESIAN_POINT ( 'NONE',  ( -5.999999999999994700, 9.499999999999994700, 1.000000000000000000 ) ) ;
#211 = DATE_AND_TIME ( #159, #1 ) ;
#212 = EDGE_LOOP ( 'NONE', ( #206, #3, #4, #132 ) ) ;
#213 = UNCERTAINTY_MEASURE_WITH_UNIT (LENGTH_MEASURE( 1.000000000000000100E-005 ), #5, 'distance_accuracy_value', 'NONE');
#214 = EDGE_CURVE ( 'NONE', #47, #120, #91, .T. ) ;
#215 = APPLICATION_PROTOCOL_DEFINITION ( 'international standard', 'config_control_design', 1994, #194 ) ;
#216 = COORDINATED_UNIVERSAL_TIME_OFFSET ( 5, 0, .BEHIND. ) ;
#217 = PERSON_AND_ORGANIZATION ( #24, #226 ) ;
#218 =( NAMED_UNIT ( * ) PLANE_ANGLE_UNIT ( ) SI_UNIT ( $, .RADIAN. ) );
#219 = LINE ( 'NONE', #81, #170 ) ;
#220 = LINE ( 'NONE', #231, #232 ) ;
#221 = COORDINATED_UNIVERSAL_TIME_OFFSET ( 5, 0, .BEHIND. ) ;
#222 = VECTOR ( 'NONE', #8, 1000.000000000000000 ) ;
#223 = DIRECTION ( 'NONE',  ( 1.369518533665900100E-016, -1.000000000000000000, 0.0000000000000000000 ) ) ;
#224 = CARTESIAN_POINT ( 'NONE',  ( -5.999999999999994700, 9.499999999999994700, 1.000000000000000000 ) ) ;
#225 = ORIENTED_EDGE ( 'NONE', *, *, #184, .F. ) ;
#226 = ORGANIZATION ( 'UNSPECIFIED', 'UNSPECIFIED', '' ) ;
#227 = AXIS2_PLACEMENT_3D ( 'NONE', #164, #106, #34 ) ;
#228 = DIRECTION ( 'NONE',  ( 0.0000000000000000000, -0.0000000000000000000, 1.000000000000000000 ) ) ;
#229 = PERSON_AND_ORGANIZATION_ROLE ( 'design_supplier' ) ;
#230 = ORIENTED_EDGE ( 'NONE', *, *, #182, .F. ) ;
#231 = CARTESIAN_POINT ( 'NONE',  ( 6.000000000000005300, 9.499999999999994700, 1.000000000000000000 ) ) ;
#232 = VECTOR ( 'NONE', #191, 1000.000000000000000 ) ;
#233 = DIRECTION ( 'NONE',  ( -1.000000000000000000, -0.0000000000000000000, -0.0000000000000000000 ) ) ;
#234 = CARTESIAN_POINT ( 'NONE',  ( -5.999999999999992000, -9.500000000000008900, -1.000000000000000000 ) ) ;
#235 = ORIENTED_EDGE ( 'NONE', *, *, #202, .F. ) ;
#236 = CALENDAR_DATE ( 2017, 21, 2 ) ;
#237 = LINE ( 'NONE', #61, #203 ) ;
ENDSEC;
END-ISO-10303-21;
