ISO-10303-21;
HEADER;
FILE_DESCRIPTION (( 'STEP AP203' ),
    '1' );
FILE_NAME ('Web Model 66196.STEP',
    '2017-01-31T19:36:09',
    ( '' ),
    ( '' ),
    'SwSTEP 2.0',
    'SolidWorks 2016',
    '' );
FILE_SCHEMA (( 'CONFIG_CONTROL_DESIGN' ));
ENDSEC;

DATA;
#1 = SECURITY_CLASSIFICATION ( '', '', #31 ) ;
#2 = DIRECTION ( 'NONE',  ( 0.0000000000000000000, 0.0000000000000000000, 1.000000000000000000 ) ) ;
#3 = ORIENTED_EDGE ( 'NONE', *, *, #116, .T. ) ;
#4 = APPROVAL_STATUS ( 'not_yet_approved' ) ;
#5 = APPLICATION_PROTOCOL_DEFINITION ( 'international standard', 'config_control_design', 1994, #142 ) ;
#6 = EDGE_CURVE ( 'NONE', #9, #144, #173, .T. ) ;
#7 = CC_DESIGN_PERSON_AND_ORGANIZATION_ASSIGNMENT ( #147, #101, ( #58 ) ) ;
#8 = CALENDAR_DATE ( 2017, 31, 1 ) ;
#9 = VERTEX_POINT ( 'NONE', #125 ) ;
#10 = CC_DESIGN_DATE_AND_TIME_ASSIGNMENT ( #158, #34, ( #58 ) ) ;
#11 = DIRECTION ( 'NONE',  ( 1.000000000000000000, 0.0000000000000000000, -0.0000000000000000000 ) ) ;
#12 = ORIENTED_EDGE ( 'NONE', *, *, #6, .F. ) ;
#13 = CARTESIAN_POINT ( 'NONE',  ( 0.0000000000000000000, 0.0000000000000000000, 0.2000000000000000100 ) ) ;
#14 = CARTESIAN_POINT ( 'NONE',  ( 0.0000000000000000000, 0.0000000000000000000, 0.2000000000000000100 ) ) ;
#15 = DIRECTION ( 'NONE',  ( 0.0000000000000000000, 0.0000000000000000000, 1.000000000000000000 ) ) ;
#16 = PERSON_AND_ORGANIZATION ( #50, #64 ) ;
#17 = APPLICATION_CONTEXT ( 'configuration controlled 3d designs of mechanical parts and assemblies' ) ;
#18 = PERSON_AND_ORGANIZATION_ROLE ( 'creator' ) ;
#19 = FACE_OUTER_BOUND ( 'NONE', #52, .T. ) ;
#20 = AXIS2_PLACEMENT_3D ( 'NONE', #109, #30, #123 ) ;
#21 = PRODUCT ( 'Web Model 66196', 'Web Model 66196', '', ( #35 ) ) ;
#22 = LINE ( 'NONE', #24, #132 ) ;
#23 = ADVANCED_BREP_SHAPE_REPRESENTATION ( 'Web Model 66196', ( #133, #124 ), #162 ) ;
#24 = CARTESIAN_POINT ( 'NONE',  ( 12.50000000000000000, 1.530808498934191500E-015, 0.2000000000000000100 ) ) ;
#25 = DATE_AND_TIME ( #169, #80 ) ;
#26 = ORIENTED_EDGE ( 'NONE', *, *, #128, .F. ) ;
#27 = CARTESIAN_POINT ( 'NONE',  ( 0.0000000000000000000, 0.0000000000000000000, 0.2000000000000000100 ) ) ;
#28 = EDGE_CURVE ( 'NONE', #41, #93, #56, .T. ) ;
#29 = EDGE_LOOP ( 'NONE', ( #26, #12 ) ) ;
#30 = DIRECTION ( 'NONE',  ( 0.0000000000000000000, 0.0000000000000000000, 1.000000000000000000 ) ) ;
#31 = SECURITY_CLASSIFICATION_LEVEL ( 'unclassified' ) ;
#32 = PRODUCT_DEFINITION_FORMATION_WITH_SPECIFIED_SOURCE ( 'ANY', '', #21, .NOT_KNOWN. ) ;
#33 =( LENGTH_UNIT ( ) NAMED_UNIT ( * ) SI_UNIT ( .MILLI., .METRE. ) );
#34 = DATE_TIME_ROLE ( 'creation_date' ) ;
#35 = MECHANICAL_CONTEXT ( 'NONE', #142, 'mechanical' ) ;
#36 = LINE ( 'NONE', #107, #163 ) ;
#37 = APPROVAL ( #73, 'UNSPECIFIED' ) ;
#38 = AXIS2_PLACEMENT_3D ( 'NONE', #57, #59, #72 ) ;
#39 = COORDINATED_UNIVERSAL_TIME_OFFSET ( 5, 0, .BEHIND. ) ;
#40 = CLOSED_SHELL ( 'NONE', ( #175, #145, #83, #76 ) ) ;
#41 = VERTEX_POINT ( 'NONE', #44 ) ;
#42 = CC_DESIGN_APPROVAL ( #141, ( #32 ) ) ;
#43 = ORIENTED_EDGE ( 'NONE', *, *, #167, .F. ) ;
#44 = CARTESIAN_POINT ( 'NONE',  ( -12.50000000000000000, 0.0000000000000000000, 0.2000000000000000100 ) ) ;
#45 = AXIS2_PLACEMENT_3D ( 'NONE', #13, #86, #98 ) ;
#46 =( NAMED_UNIT ( * ) PLANE_ANGLE_UNIT ( ) SI_UNIT ( $, .RADIAN. ) );
#47 = PERSON_AND_ORGANIZATION_ROLE ( 'design_owner' ) ;
#48 = PERSON_AND_ORGANIZATION ( #50, #64 ) ;
#49 = ORIENTED_EDGE ( 'NONE', *, *, #92, .F. ) ;
#50 = PERSON ( 'UNSPECIFIED', 'UNSPECIFIED', 'UNSPECIFIED', ('UNSPECIFIED'), ('UNSPECIFIED'), ('UNSPECIFIED') ) ;
#51 = APPROVAL_PERSON_ORGANIZATION ( #117, #141, #60 ) ;
#52 = EDGE_LOOP ( 'NONE', ( #43, #105, #75, #150 ) ) ;
#53 = CALENDAR_DATE ( 2017, 31, 1 ) ;
#54 = DIRECTION ( 'NONE',  ( 1.000000000000000000, 0.0000000000000000000, 0.0000000000000000000 ) ) ;
#55 = PERSON_AND_ORGANIZATION ( #50, #64 ) ;
#56 = CIRCLE ( 'NONE', #66, 12.50000000000000000 ) ;
#57 = CARTESIAN_POINT ( 'NONE',  ( 0.0000000000000000000, 0.0000000000000000000, 0.0000000000000000000 ) ) ;
#58 = PRODUCT_DEFINITION ( 'UNKNOWN', '', #32, #140 ) ;
#59 = DIRECTION ( 'NONE',  ( 0.0000000000000000000, 0.0000000000000000000, 1.000000000000000000 ) ) ;
#60 = APPROVAL_ROLE ( '' ) ;
#61 = APPROVAL_ROLE ( '' ) ;
#62 = COORDINATED_UNIVERSAL_TIME_OFFSET ( 5, 0, .BEHIND. ) ;
#63 = APPROVAL_DATE_TIME ( #74, #37 ) ;
#64 = ORGANIZATION ( 'UNSPECIFIED', 'UNSPECIFIED', '' ) ;
#65 = FACE_OUTER_BOUND ( 'NONE', #29, .T. ) ;
#66 = AXIS2_PLACEMENT_3D ( 'NONE', #119, #2, #153 ) ;
#67 = DIRECTION ( 'NONE',  ( 1.000000000000000000, 0.0000000000000000000, -0.0000000000000000000 ) ) ;
#68 = DIRECTION ( 'NONE',  ( -0.0000000000000000000, -0.0000000000000000000, -1.000000000000000000 ) ) ;
#69 = ORIENTED_EDGE ( 'NONE', *, *, #6, .T. ) ;
#70 = DIRECTION ( 'NONE',  ( 0.0000000000000000000, 0.0000000000000000000, 1.000000000000000000 ) ) ;
#71 = CC_DESIGN_APPROVAL ( #78, ( #58 ) ) ;
#72 = DIRECTION ( 'NONE',  ( 1.000000000000000000, 0.0000000000000000000, 0.0000000000000000000 ) ) ;
#73 = APPROVAL_STATUS ( 'not_yet_approved' ) ;
#74 = DATE_AND_TIME ( #8, #129 ) ;
#75 = ORIENTED_EDGE ( 'NONE', *, *, #92, .T. ) ;
#76 = ADVANCED_FACE ( 'NONE', ( #65 ), #96, .F. ) ;
#77 = CARTESIAN_POINT ( 'NONE',  ( 0.0000000000000000000, 0.0000000000000000000, 0.0000000000000000000 ) ) ;
#78 = APPROVAL ( #111, 'UNSPECIFIED' ) ;
#79 = CC_DESIGN_PERSON_AND_ORGANIZATION_ASSIGNMENT ( #143, #18, ( #32 ) ) ;
#80 = LOCAL_TIME ( 14, 36, 9.000000000000000000, #115 ) ;
#81 = CYLINDRICAL_SURFACE ( 'NONE', #120, 12.50000000000000000 ) ;
#82 = CIRCLE ( 'NONE', #38, 12.50000000000000000 ) ;
#83 = ADVANCED_FACE ( 'NONE', ( #103 ), #166, .T. ) ;
#84 = DIRECTION ( 'NONE',  ( -0.0000000000000000000, -0.0000000000000000000, -1.000000000000000000 ) ) ;
#85 = APPROVAL_DATE_TIME ( #121, #141 ) ;
#86 = DIRECTION ( 'NONE',  ( -0.0000000000000000000, -0.0000000000000000000, -1.000000000000000000 ) ) ;
#87 = CARTESIAN_POINT ( 'NONE',  ( 12.50000000000000000, 1.530808498934191500E-015, 0.2000000000000000100 ) ) ;
#88 = PERSON_AND_ORGANIZATION_ROLE ( 'classification_officer' ) ;
#89 = DATE_TIME_ROLE ( 'classification_date' ) ;
#90 = PRODUCT_DEFINITION_SHAPE ( 'NONE', 'NONE',  #58 ) ;
#91 = APPROVAL_ROLE ( '' ) ;
#92 = EDGE_CURVE ( 'NONE', #41, #144, #36, .T. ) ;
#93 = VERTEX_POINT ( 'NONE', #87 ) ;
#94 = ORIENTED_EDGE ( 'NONE', *, *, #167, .T. ) ;
#95 = CC_DESIGN_PERSON_AND_ORGANIZATION_ASSIGNMENT ( #48, #154, ( #32 ) ) ;
#96 = PLANE ( 'NONE',  #170 ) ;
#97 = DIRECTION ( 'NONE',  ( -1.000000000000000000, 0.0000000000000000000, 0.0000000000000000000 ) ) ;
#98 = DIRECTION ( 'NONE',  ( -1.000000000000000000, 0.0000000000000000000, 0.0000000000000000000 ) ) ;
#99 = FACE_OUTER_BOUND ( 'NONE', #148, .T. ) ;
#100 =( NAMED_UNIT ( * ) SI_UNIT ( $, .STERADIAN. ) SOLID_ANGLE_UNIT ( ) );
#101 = PERSON_AND_ORGANIZATION_ROLE ( 'creator' ) ;
#102 = APPROVAL_PERSON_ORGANIZATION ( #16, #37, #61 ) ;
#103 = FACE_OUTER_BOUND ( 'NONE', #122, .T. ) ;
#104 = CC_DESIGN_DATE_AND_TIME_ASSIGNMENT ( #25, #89, ( #1 ) ) ;
#105 = ORIENTED_EDGE ( 'NONE', *, *, #28, .F. ) ;
#106 = APPROVAL_PERSON_ORGANIZATION ( #161, #78, #91 ) ;
#107 = CARTESIAN_POINT ( 'NONE',  ( -12.50000000000000000, 0.0000000000000000000, 0.2000000000000000100 ) ) ;
#108 = DIRECTION ( 'NONE',  ( -0.0000000000000000000, -0.0000000000000000000, -1.000000000000000000 ) ) ;
#109 = CARTESIAN_POINT ( 'NONE',  ( 0.0000000000000000000, 0.0000000000000000000, 0.2000000000000000100 ) ) ;
#110 = DIRECTION ( 'NONE',  ( 1.000000000000000000, 0.0000000000000000000, 0.0000000000000000000 ) ) ;
#111 = APPROVAL_STATUS ( 'not_yet_approved' ) ;
#112 = CALENDAR_DATE ( 2017, 31, 1 ) ;
#113 = APPLICATION_PROTOCOL_DEFINITION ( 'international standard', 'config_control_design', 1994, #17 ) ;
#114 = COORDINATED_UNIVERSAL_TIME_OFFSET ( 5, 0, .BEHIND. ) ;
#115 = COORDINATED_UNIVERSAL_TIME_OFFSET ( 5, 0, .BEHIND. ) ;
#116 = EDGE_CURVE ( 'NONE', #93, #41, #156, .T. ) ;
#117 = PERSON_AND_ORGANIZATION ( #50, #64 ) ;
#118 = CC_DESIGN_APPROVAL ( #37, ( #1 ) ) ;
#119 = CARTESIAN_POINT ( 'NONE',  ( 0.0000000000000000000, 0.0000000000000000000, 0.2000000000000000100 ) ) ;
#120 = AXIS2_PLACEMENT_3D ( 'NONE', #27, #68, #97 ) ;
#121 = DATE_AND_TIME ( #53, #152 ) ;
#122 = EDGE_LOOP ( 'NONE', ( #135, #3 ) ) ;
#123 = DIRECTION ( 'NONE',  ( 1.000000000000000000, 0.0000000000000000000, 0.0000000000000000000 ) ) ;
#124 = AXIS2_PLACEMENT_3D ( 'NONE', #77, #15, #110 ) ;
#125 = CARTESIAN_POINT ( 'NONE',  ( 12.50000000000000000, 1.530808498934191500E-015, 0.0000000000000000000 ) ) ;
#126 = CARTESIAN_POINT ( 'NONE',  ( 0.0000000000000000000, 0.0000000000000000000, 0.0000000000000000000 ) ) ;
#127 = COORDINATED_UNIVERSAL_TIME_OFFSET ( 5, 0, .BEHIND. ) ;
#128 = EDGE_CURVE ( 'NONE', #144, #9, #82, .T. ) ;
#129 = LOCAL_TIME ( 14, 36, 9.000000000000000000, #62 ) ;
#130 = APPROVAL_DATE_TIME ( #159, #78 ) ;
#131 = CC_DESIGN_SECURITY_CLASSIFICATION ( #1, ( #32 ) ) ;
#132 = VECTOR ( 'NONE', #84, 1000.000000000000000 ) ;
#133 = MANIFOLD_SOLID_BREP ( 'Extrude1', #40 ) ;
#134 = CC_DESIGN_PERSON_AND_ORGANIZATION_ASSIGNMENT ( #172, #47, ( #21 ) ) ;
#135 = ORIENTED_EDGE ( 'NONE', *, *, #28, .T. ) ;
#136 = LOCAL_TIME ( 14, 36, 9.000000000000000000, #114 ) ;
#137 = SHAPE_DEFINITION_REPRESENTATION ( #90, #23 ) ;
#138 = DIRECTION ( 'NONE',  ( 0.0000000000000000000, 0.0000000000000000000, 1.000000000000000000 ) ) ;
#139 = DIRECTION ( 'NONE',  ( 0.0000000000000000000, 0.0000000000000000000, 1.000000000000000000 ) ) ;
#140 = DESIGN_CONTEXT ( 'detailed design', #17, 'design' ) ;
#141 = APPROVAL ( #4, 'UNSPECIFIED' ) ;
#142 = APPLICATION_CONTEXT ( 'configuration controlled 3d designs of mechanical parts and assemblies' ) ;
#143 = PERSON_AND_ORGANIZATION ( #50, #64 ) ;
#144 = VERTEX_POINT ( 'NONE', #151 ) ;
#145 = ADVANCED_FACE ( 'NONE', ( #19 ), #81, .T. ) ;
#146 = AXIS2_PLACEMENT_3D ( 'NONE', #14, #138, #67 ) ;
#147 = PERSON_AND_ORGANIZATION ( #50, #64 ) ;
#148 = EDGE_LOOP ( 'NONE', ( #174, #94, #69, #49 ) ) ;
#149 = CC_DESIGN_PERSON_AND_ORGANIZATION_ASSIGNMENT ( #55, #88, ( #1 ) ) ;
#150 = ORIENTED_EDGE ( 'NONE', *, *, #128, .T. ) ;
#151 = CARTESIAN_POINT ( 'NONE',  ( -12.50000000000000000, 0.0000000000000000000, 0.0000000000000000000 ) ) ;
#152 = LOCAL_TIME ( 14, 36, 9.000000000000000000, #127 ) ;
#153 = DIRECTION ( 'NONE',  ( 1.000000000000000000, 0.0000000000000000000, 0.0000000000000000000 ) ) ;
#154 = PERSON_AND_ORGANIZATION_ROLE ( 'design_supplier' ) ;
#155 = LOCAL_TIME ( 14, 36, 9.000000000000000000, #39 ) ;
#156 = CIRCLE ( 'NONE', #20, 12.50000000000000000 ) ;
#157 = AXIS2_PLACEMENT_3D ( 'NONE', #126, #70, #54 ) ;
#158 = DATE_AND_TIME ( #112, #155 ) ;
#159 = DATE_AND_TIME ( #165, #136 ) ;
#160 = CYLINDRICAL_SURFACE ( 'NONE', #45, 12.50000000000000000 ) ;
#161 = PERSON_AND_ORGANIZATION ( #50, #64 ) ;
#162 =( GEOMETRIC_REPRESENTATION_CONTEXT ( 3 ) GLOBAL_UNCERTAINTY_ASSIGNED_CONTEXT ( ( #171 ) ) GLOBAL_UNIT_ASSIGNED_CONTEXT ( ( #33, #46, #100 ) ) REPRESENTATION_CONTEXT ( 'NONE', 'WORKASPACE' ) );
#163 = VECTOR ( 'NONE', #108, 1000.000000000000000 ) ;
#164 = CARTESIAN_POINT ( 'NONE',  ( 0.0000000000000000000, 0.0000000000000000000, 0.0000000000000000000 ) ) ;
#165 = CALENDAR_DATE ( 2017, 31, 1 ) ;
#166 = PLANE ( 'NONE',  #146 ) ;
#167 = EDGE_CURVE ( 'NONE', #93, #9, #22, .T. ) ;
#168 = PRODUCT_RELATED_PRODUCT_CATEGORY ( 'detail', '', ( #21 ) ) ;
#169 = CALENDAR_DATE ( 2017, 31, 1 ) ;
#170 = AXIS2_PLACEMENT_3D ( 'NONE', #164, #139, #11 ) ;
#171 = UNCERTAINTY_MEASURE_WITH_UNIT (LENGTH_MEASURE( 1.000000000000000100E-005 ), #33, 'distance_accuracy_value', 'NONE');
#172 = PERSON_AND_ORGANIZATION ( #50, #64 ) ;
#173 = CIRCLE ( 'NONE', #157, 12.50000000000000000 ) ;
#174 = ORIENTED_EDGE ( 'NONE', *, *, #116, .F. ) ;
#175 = ADVANCED_FACE ( 'NONE', ( #99 ), #160, .T. ) ;
ENDSEC;
END-ISO-10303-21;
