ISO-10303-21;
HEADER;
FILE_DESCRIPTION (( 'STEP AP203' ),
    '1' );
FILE_NAME ('21996-E0W.STEP',
    '2018-06-01T18:11:37',
    ( 'admin' ),
    ( '' ),
    'SwSTEP 2.0',
    'SolidWorks 2016',
    '' );
FILE_SCHEMA (( 'CONFIG_CONTROL_DESIGN' ));
ENDSEC;

DATA;
#1 = VERTEX_POINT ( 'NONE', #253 ) ;
#2 = EDGE_LOOP ( 'NONE', ( #95, #207, #210, #160 ) ) ;
#3 = VERTEX_POINT ( 'NONE', #303 ) ;
#4 = AXIS2_PLACEMENT_3D ( 'NONE', #57, #46, #68 ) ;
#5 = CARTESIAN_POINT ( 'NONE',  ( 0.0000000000000000000, -1.503559224456119800E-017, 0.09487001285224328000 ) ) ;
#6 = COORDINATED_UNIVERSAL_TIME_OFFSET ( 5, 0, .BEHIND. ) ;
#7 = ORIENTED_EDGE ( 'NONE', *, *, #50, .T. ) ;
#8 = APPLICATION_PROTOCOL_DEFINITION ( 'international standard', 'config_control_design', 1994, #34 ) ;
#9 =( NAMED_UNIT ( * ) PLANE_ANGLE_UNIT ( ) SI_UNIT ( $, .RADIAN. ) );
#10 = ADVANCED_FACE ( 'NONE', ( #220 ), #162, .T. ) ;
#11 = DIRECTION ( 'NONE',  ( -0.0000000000000000000, -1.836909530733573000E-016, 1.000000000000000000 ) ) ;
#12 = CIRCLE ( 'NONE', #129, 0.8040551181102361100 ) ;
#13 = AXIS2_PLACEMENT_3D ( 'NONE', #66, #64, #61 ) ;
#14 = FACE_OUTER_BOUND ( 'NONE', #184, .T. ) ;
#15 = VECTOR ( 'NONE', #94, 39.37007874015748100 ) ;
#16 = CIRCLE ( 'NONE', #320, 0.8040551181102361100 ) ;
#17 = DIRECTION ( 'NONE',  ( 0.0000000000000000000, -1.000000000000000000, -1.707404996040164000E-016 ) ) ;
#18 = CC_DESIGN_DATE_AND_TIME_ASSIGNMENT ( #200, #138, ( #188 ) ) ;
#19 = CARTESIAN_POINT ( 'NONE',  ( 0.0000000000000000000, 1.292873148000521900E-017, -0.05736570293392788400 ) ) ;
#20 = COORDINATED_UNIVERSAL_TIME_OFFSET ( 5, 0, .BEHIND. ) ;
#21 = CARTESIAN_POINT ( 'NONE',  ( 0.0000000000000000000, 0.2444322300693976000, 0.1004377827828460100 ) ) ;
#22 = DIRECTION ( 'NONE',  ( 0.0000000000000000000, -1.000000000000000000, -1.707404996040164000E-016 ) ) ;
#23 = FACE_OUTER_BOUND ( 'NONE', #279, .T. ) ;
#24 = SPHERICAL_SURFACE ( 'NONE', #257, 0.3854330708661421500 ) ;
#25 = ORIENTED_EDGE ( 'NONE', *, *, #271, .F. ) ;
#26 = PERSON_AND_ORGANIZATION_ROLE ( 'classification_officer' ) ;
#27 = DIRECTION ( 'NONE',  ( -0.0000000000000000000, -1.836909530733565600E-016, 1.000000000000000000 ) ) ;
#28 = ORIENTED_EDGE ( 'NONE', *, *, #219, .T. ) ;
#29 = APPROVAL_ROLE ( '' ) ;
#30 = VECTOR ( 'NONE', #115, 39.37007874015748900 ) ;
#31 = CARTESIAN_POINT ( 'NONE',  ( 0.0000000000000000000, 1.292873148000523100E-017, -0.05736570293392787700 ) ) ;
#32 = ADVANCED_FACE ( 'NONE', ( #321 ), #24, .F. ) ;
#33 = CARTESIAN_POINT ( 'NONE',  ( 0.0000000000000000000, -0.2500000000000000600, 0.01301735765611734300 ) ) ;
#34 = APPLICATION_CONTEXT ( 'configuration controlled 3d designs of mechanical parts and assemblies' ) ;
#35 = ORIENTED_EDGE ( 'NONE', *, *, #216, .F. ) ;
#36 = DIRECTION ( 'NONE',  ( 0.0000000000000000000, -1.000000000000000000, -1.707404996040164000E-016 ) ) ;
#37 = ORIENTED_EDGE ( 'NONE', *, *, #134, .T. ) ;
#38 = ORIENTED_EDGE ( 'NONE', *, *, #232, .T. ) ;
#39 = LINE ( 'NONE', #179, #56 ) ;
#40 = CYLINDRICAL_SURFACE ( 'NONE', #103, 0.2500000000000000600 ) ;
#41 = CC_DESIGN_PERSON_AND_ORGANIZATION_ASSIGNMENT ( #311, #26, ( #188 ) ) ;
#42 = CC_DESIGN_APPROVAL ( #196, ( #236 ) ) ;
#43 = ORIENTED_EDGE ( 'NONE', *, *, #165, .F. ) ;
#44 = LINE ( 'NONE', #193, #52 ) ;
#45 = DIRECTION ( 'NONE',  ( -0.0000000000000000000, -1.836909530733565600E-016, 1.000000000000000000 ) ) ;
#46 = DIRECTION ( 'NONE',  ( 0.0000000000000000000, 1.836909530733565600E-016, -1.000000000000000000 ) ) ;
#47 = CARTESIAN_POINT ( 'NONE',  ( 0.0000000000000000000, 1.292873148000521900E-017, -0.05736570293392788400 ) ) ;
#48 = EDGE_LOOP ( 'NONE', ( #25, #28, #186, #168 ) ) ;
#49 =( GEOMETRIC_REPRESENTATION_CONTEXT ( 3 ) GLOBAL_UNCERTAINTY_ASSIGNED_CONTEXT ( ( #322 ) ) GLOBAL_UNIT_ASSIGNED_CONTEXT ( ( #274, #9, #102 ) ) REPRESENTATION_CONTEXT ( 'NONE', 'WORKASPACE' ) );
#50 = EDGE_CURVE ( 'NONE', #182, #159, #70, .T. ) ;
#51 = FACE_OUTER_BOUND ( 'NONE', #307, .T. ) ;
#52 = VECTOR ( 'NONE', #218, 39.37007874015748100 ) ;
#53 = SPHERICAL_SURFACE ( 'NONE', #250, 0.8040551181102361100 ) ;
#54 = CIRCLE ( 'NONE', #314, 0.2500000000000000600 ) ;
#55 = FACE_OUTER_BOUND ( 'NONE', #112, .T. ) ;
#56 = VECTOR ( 'NONE', #107, 39.37007874015748100 ) ;
#57 = CARTESIAN_POINT ( 'NONE',  ( 0.0000000000000000000, -1.503559224456119800E-017, 0.09487001285224328000 ) ) ;
#58 = DIRECTION ( 'NONE',  ( -0.0000000000000000000, -1.836909530733565600E-016, 1.000000000000000000 ) ) ;
#59 = CARTESIAN_POINT ( 'NONE',  ( 0.0000000000000000000, 1.408170631545810000E-016, -0.06763546599460620900 ) ) ;
#60 = ORIENTED_EDGE ( 'NONE', *, *, #50, .F. ) ;
#61 = DIRECTION ( 'NONE',  ( 0.0000000000000000000, -1.000000000000000000, -2.095556296592407100E-016 ) ) ;
#62 = FACE_OUTER_BOUND ( 'NONE', #151, .T. ) ;
#63 = LINE ( 'NONE', #221, #30 ) ;
#64 = DIRECTION ( 'NONE',  ( -0.0000000000000000000, -1.836909530733565600E-016, 1.000000000000000000 ) ) ;
#65 = CALENDAR_DATE ( 2018, 1, 6 ) ;
#66 = CARTESIAN_POINT ( 'NONE',  ( 0.0000000000000000000, -1.605834120960677700E-017, 0.1004377827828459600 ) ) ;
#67 = CARTESIAN_POINT ( 'NONE',  ( 2.970433530995547000E-017, 0.2425543048872278500, -0.06763546599460618100 ) ) ;
#68 = DIRECTION ( 'NONE',  ( 0.0000000000000000000, 1.000000000000000000, 2.048885995248196900E-016 ) ) ;
#69 = EDGE_LOOP ( 'NONE', ( #154, #7, #90 ) ) ;
#70 = CIRCLE ( 'NONE', #263, 0.3854330708661421500 ) ;
#71 = APPROVAL_DATE_TIME ( #136, #89 ) ;
#72 = CARTESIAN_POINT ( 'NONE',  ( 3.061616997868383600E-017, 0.2500000000000000600, -0.05736570293392783500 ) ) ;
#73 = CIRCLE ( 'NONE', #209, 0.2425543048872276500 ) ;
#74 = LINE ( 'NONE', #127, #15 ) ;
#75 = APPLICATION_CONTEXT ( 'configuration controlled 3d designs of mechanical parts and assemblies' ) ;
#76 = VECTOR ( 'NONE', #171, 39.37007874015748900 ) ;
#77 = FACE_OUTER_BOUND ( 'NONE', #48, .T. ) ;
#78 = CIRCLE ( 'NONE', #13, 0.2444322300693972700 ) ;
#79 = LINE ( 'NONE', #33, #84 ) ;
#80 = CONICAL_SURFACE ( 'NONE', #316, 0.2500000000000000600, 0.7853981633974574900 ) ;
#81 = FACE_OUTER_BOUND ( 'NONE', #2, .T. ) ;
#82 = ORIENTED_EDGE ( 'NONE', *, *, #230, .T. ) ;
#83 = CARTESIAN_POINT ( 'NONE',  ( 3.061616997868383600E-017, 0.2500000000000000600, 0.09487001285224333500 ) ) ;
#84 = VECTOR ( 'NONE', #45, 39.37007874015748100 ) ;
#85 = CIRCLE ( 'NONE', #153, 0.2500000000000000600 ) ;
#86 = CIRCLE ( 'NONE', #240, 0.2500000000000000600 ) ;
#87 = APPROVAL_PERSON_ORGANIZATION ( #272, #89, #238 ) ;
#88 = CONICAL_SURFACE ( 'NONE', #4, 0.2500000000000000600, 0.7853981633974574900 ) ;
#89 = APPROVAL ( #152, 'UNSPECIFIED' ) ;
#90 = ORIENTED_EDGE ( 'NONE', *, *, #192, .T. ) ;
#91 = CARTESIAN_POINT ( 'NONE',  ( 0.0000000000000000000, 9.846347463259217900E-017, -0.1050928785643551000 ) ) ;
#92 = CARTESIAN_POINT ( 'NONE',  ( 0.0000000000000000000, -1.503559224456119800E-017, 0.09487001285224328000 ) ) ;
#93 = ADVANCED_FACE ( 'NONE', ( #23 ), #287, .T. ) ;
#94 = DIRECTION ( 'NONE',  ( -0.0000000000000000000, -1.836909530733565600E-016, 1.000000000000000000 ) ) ;
#95 = ORIENTED_EDGE ( 'NONE', *, *, #227, .F. ) ;
#96 = DIRECTION ( 'NONE',  ( 0.0000000000000000000, 1.000000000000000000, 2.048885995248196900E-016 ) ) ;
#97 = PERSON_AND_ORGANIZATION ( #293, #277 ) ;
#98 = DIRECTION ( 'NONE',  ( 0.0000000000000000000, 0.0000000000000000000, 1.000000000000000000 ) ) ;
#99 = DIRECTION ( 'NONE',  ( -1.000000000000000000, 0.0000000000000000000, -0.0000000000000000000 ) ) ;
#100 = PERSON_AND_ORGANIZATION ( #293, #277 ) ;
#101 = ORIENTED_EDGE ( 'NONE', *, *, #239, .T. ) ;
#102 =( NAMED_UNIT ( * ) SI_UNIT ( $, .STERADIAN. ) SOLID_ANGLE_UNIT ( ) );
#103 = AXIS2_PLACEMENT_3D ( 'NONE', #128, #213, #299 ) ;
#104 = CARTESIAN_POINT ( 'NONE',  ( 0.0000000000000000000, 0.0000000000000000000, 0.6989622395458809900 ) ) ;
#105 = AXIS2_PLACEMENT_3D ( 'NONE', #59, #145, #204 ) ;
#106 = SHAPE_DEFINITION_REPRESENTATION ( #310, #288 ) ;
#107 = DIRECTION ( 'NONE',  ( 0.0000000000000000000, 0.7071067811865541200, -0.7071067811865409100 ) ) ;
#108 = DIRECTION ( 'NONE',  ( 0.0000000000000000000, -1.000000000000000000, -1.759817246733674200E-016 ) ) ;
#109 = APPROVAL_STATUS ( 'not_yet_approved' ) ;
#110 = DIRECTION ( 'NONE',  ( 0.0000000000000000000, 1.836909530733573000E-016, -1.000000000000000000 ) ) ;
#111 = VERTEX_POINT ( 'NONE', #133 ) ;
#112 = EDGE_LOOP ( 'NONE', ( #329, #120, #38, #233 ) ) ;
#113 = CARTESIAN_POINT ( 'NONE',  ( 0.0000000000000000000, 1.408170631545810000E-016, -0.06763546599460620900 ) ) ;
#114 = CIRCLE ( 'NONE', #105, 0.2425543048872276500 ) ;
#115 = DIRECTION ( 'NONE',  ( 0.0000000000000000000, -0.5869736117227312100, 0.8096060641702063100 ) ) ;
#116 = LOCAL_TIME ( 14, 11, 37.00000000000000000, #20 ) ;
#117 = CONICAL_SURFACE ( 'NONE', #118, 0.2500000000000000600, 0.6273156529973793500 ) ;
#118 = AXIS2_PLACEMENT_3D ( 'NONE', #31, #11, #22 ) ;
#119 = ORIENTED_EDGE ( 'NONE', *, *, #315, .F. ) ;
#120 = ORIENTED_EDGE ( 'NONE', *, *, #192, .F. ) ;
#121 = EDGE_LOOP ( 'NONE', ( #35, #82, #262 ) ) ;
#122 = CONICAL_SURFACE ( 'NONE', #309, 0.2500000000000000600, 0.6273156529973793500 ) ;
#123 = PERSON_AND_ORGANIZATION ( #293, #277 ) ;
#124 = ORIENTED_EDGE ( 'NONE', *, *, #239, .F. ) ;
#125 = PERSON_AND_ORGANIZATION ( #293, #277 ) ;
#126 = DESIGN_CONTEXT ( 'detailed design', #34, 'design' ) ;
#127 = CARTESIAN_POINT ( 'NONE',  ( 3.061616997868383600E-017, 0.2500000000000000600, 0.01301735765611743700 ) ) ;
#128 = CARTESIAN_POINT ( 'NONE',  ( 0.0000000000000000000, 0.0000000000000000000, 0.01301735765611739000 ) ) ;
#129 = AXIS2_PLACEMENT_3D ( 'NONE', #104, #99, #98 ) ;
#130 = LENGTH_MEASURE_WITH_UNIT ( LENGTH_MEASURE( 0.02539999999999999900 ), #229 );
#131 = APPROVAL_PERSON_ORGANIZATION ( #123, #196, #266 ) ;
#132 = MECHANICAL_CONTEXT ( 'NONE', #75, 'mechanical' ) ;
#133 = CARTESIAN_POINT ( 'NONE',  ( -2.993431481629371500E-017, -0.2444322300693975200, 0.1004377827828459300 ) ) ;
#134 = EDGE_CURVE ( 'NONE', #182, #111, #319, .T. ) ;
#135 = DIRECTION ( 'NONE',  ( 0.0000000000000000000, -1.000000000000000000, -1.698793983231462000E-016 ) ) ;
#136 = DATE_AND_TIME ( #223, #313 ) ;
#137 = ADVANCED_FACE ( 'NONE', ( #181 ), #260, .F. ) ;
#138 = DATE_TIME_ROLE ( 'classification_date' ) ;
#139 = CARTESIAN_POINT ( 'NONE',  ( 0.0000000000000000000, 0.0000000000000000000, 0.6989622395458809900 ) ) ;
#140 = CARTESIAN_POINT ( 'NONE',  ( 0.0000000000000000000, 0.0000000000000000000, 0.3984504285222599800 ) ) ;
#141 = CC_DESIGN_PERSON_AND_ORGANIZATION_ASSIGNMENT ( #176, #286, ( #289 ) ) ;
#142 = CC_DESIGN_PERSON_AND_ORGANIZATION_ASSIGNMENT ( #97, #243, ( #255 ) ) ;
#143 = ORIENTED_EDGE ( 'NONE', *, *, #172, .F. ) ;
#144 = DIRECTION ( 'NONE',  ( -1.000000000000000000, 0.0000000000000000000, 0.0000000000000000000 ) ) ;
#145 = DIRECTION ( 'NONE',  ( 0.0000000000000000000, 1.836909530733573000E-016, -1.000000000000000000 ) ) ;
#146 = CC_DESIGN_SECURITY_CLASSIFICATION ( #188, ( #289 ) ) ;
#147 = EDGE_CURVE ( 'NONE', #1, #3, #63, .T. ) ;
#148 = APPROVAL_STATUS ( 'not_yet_approved' ) ;
#149 = CARTESIAN_POINT ( 'NONE',  ( 0.0000000000000000000, 0.0000000000000000000, 0.0000000000000000000 ) ) ;
#150 = APPROVAL_DATE_TIME ( #203, #196 ) ;
#151 = EDGE_LOOP ( 'NONE', ( #231, #163, #241 ) ) ;
#152 = APPROVAL_STATUS ( 'not_yet_approved' ) ;
#153 = AXIS2_PLACEMENT_3D ( 'NONE', #5, #27, #199 ) ;
#154 = ORIENTED_EDGE ( 'NONE', *, *, #134, .F. ) ;
#155 = CC_DESIGN_APPROVAL ( #89, ( #188 ) ) ;
#156 = DIRECTION ( 'NONE',  ( 0.0000000000000000000, 0.0000000000000000000, 1.000000000000000000 ) ) ;
#157 = ORIENTED_EDGE ( 'NONE', *, *, #301, .T. ) ;
#158 = ORIENTED_EDGE ( 'NONE', *, *, #147, .T. ) ;
#159 = VERTEX_POINT ( 'NONE', #21 ) ;
#160 = ORIENTED_EDGE ( 'NONE', *, *, #147, .F. ) ;
#161 = PERSON_AND_ORGANIZATION ( #293, #277 ) ;
#162 = SPHERICAL_SURFACE ( 'NONE', #285, 0.8040551181102361100 ) ;
#163 = ORIENTED_EDGE ( 'NONE', *, *, #216, .T. ) ;
#164 = DIRECTION ( 'NONE',  ( -0.0000000000000000000, -1.836909530733573000E-016, 1.000000000000000000 ) ) ;
#165 = EDGE_CURVE ( 'NONE', #173, #3, #305, .T. ) ;
#166 = CALENDAR_DATE ( 2018, 1, 6 ) ;
#167 = ORIENTED_EDGE ( 'NONE', *, *, #330, .F. ) ;
#168 = ORIENTED_EDGE ( 'NONE', *, *, #232, .F. ) ;
#169 = DIRECTION ( 'NONE',  ( 1.000000000000000000, 0.0000000000000000000, 0.0000000000000000000 ) ) ;
#170 = ADVANCED_FACE ( 'NONE', ( #62 ), #53, .T. ) ;
#171 = DIRECTION ( 'NONE',  ( 7.188353547802039800E-017, 0.5869736117227309900, 0.8096060641702064200 ) ) ;
#172 = EDGE_CURVE ( 'NONE', #273, #177, #54, .T. ) ;
#173 = VERTEX_POINT ( 'NONE', #261 ) ;
#174 = COORDINATED_UNIVERSAL_TIME_OFFSET ( 5, 0, .BEHIND. ) ;
#175 = ADVANCED_FACE ( 'NONE', ( #14 ), #40, .T. ) ;
#176 = PERSON_AND_ORGANIZATION ( #293, #277 ) ;
#177 = VERTEX_POINT ( 'NONE', #237 ) ;
#178 = DIRECTION ( 'NONE',  ( 0.0000000000000000000, 1.836909530733565600E-016, -1.000000000000000000 ) ) ;
#179 = CARTESIAN_POINT ( 'NONE',  ( 0.0000000000000000000, 0.2500000000000000600, 0.09487001285224333500 ) ) ;
#180 = DATE_AND_TIME ( #201, #116 ) ;
#181 = FACE_OUTER_BOUND ( 'NONE', #212, .T. ) ;
#182 = VERTEX_POINT ( 'NONE', #226 ) ;
#183 = DIRECTION ( 'NONE',  ( -0.0000000000000000000, -1.836909530733573000E-016, 1.000000000000000000 ) ) ;
#184 = EDGE_LOOP ( 'NONE', ( #157, #101, #119, #228 ) ) ;
#185 = DIRECTION ( 'NONE',  ( 1.224646799147353200E-016, 1.000000000000000000, 0.0000000000000000000 ) ) ;
#186 = ORIENTED_EDGE ( 'NONE', *, *, #315, .T. ) ;
#187 = SECURITY_CLASSIFICATION_LEVEL ( 'unclassified' ) ;
#188 = SECURITY_CLASSIFICATION ( '', '', #187 ) ;
#189 = CARTESIAN_POINT ( 'NONE',  ( 0.0000000000000000000, -1.605834120960677700E-017, 0.1004377827828459600 ) ) ;
#190 = LOCAL_TIME ( 14, 11, 37.00000000000000000, #6 ) ;
#191 = AXIS2_PLACEMENT_3D ( 'NONE', #189, #225, #235 ) ;
#192 = EDGE_CURVE ( 'NONE', #159, #111, #252, .T. ) ;
#193 = CARTESIAN_POINT ( 'NONE',  ( 3.061616997868383600E-017, -0.2500000000000000600, 0.09487001285224323800 ) ) ;
#194 = CALENDAR_DATE ( 2018, 1, 6 ) ;
#195 = DIRECTION ( 'NONE',  ( -0.0000000000000000000, -1.836909530733565600E-016, 1.000000000000000000 ) ) ;
#196 = APPROVAL ( #148, 'UNSPECIFIED' ) ;
#197 = CARTESIAN_POINT ( 'NONE',  ( 0.0000000000000000000, -1.503559224456119800E-017, 0.09487001285224328000 ) ) ;
#198 = DIRECTION ( 'NONE',  ( 1.000000000000000000, -1.224646799147353200E-016, -2.249565377136127700E-032 ) ) ;
#199 = DIRECTION ( 'NONE',  ( 0.0000000000000000000, -1.000000000000000000, -2.048885995248196900E-016 ) ) ;
#200 = DATE_AND_TIME ( #166, #284 ) ;
#201 = CALENDAR_DATE ( 2018, 1, 6 ) ;
#202 = CARTESIAN_POINT ( 'NONE',  ( 0.0000000000000000000, 0.0000000000000000000, 0.3984504285222599800 ) ) ;
#203 = DATE_AND_TIME ( #194, #190 ) ;
#204 = DIRECTION ( 'NONE',  ( 0.0000000000000000000, -1.000000000000000000, -1.759817246733674200E-016 ) ) ;
#205 = MANIFOLD_SOLID_BREP ( '21996-001-1-solid1', #234 ) ;
#206 = CARTESIAN_POINT ( 'NONE',  ( 0.0000000000000000000, 0.0000000000000000000, 0.6989622395458809900 ) ) ;
#207 = ORIENTED_EDGE ( 'NONE', *, *, #278, .T. ) ;
#208 = PERSON_AND_ORGANIZATION_ROLE ( 'design_supplier' ) ;
#209 = AXIS2_PLACEMENT_3D ( 'NONE', #113, #110, #108 ) ;
#210 = ORIENTED_EDGE ( 'NONE', *, *, #301, .F. ) ;
#211 = LOCAL_TIME ( 14, 11, 37.00000000000000000, #268 ) ;
#212 = EDGE_LOOP ( 'NONE', ( #60, #37, #267 ) ) ;
#213 = DIRECTION ( 'NONE',  ( -0.0000000000000000000, -1.836909530733565600E-016, 1.000000000000000000 ) ) ;
#214 = CARTESIAN_POINT ( 'NONE',  ( 0.0000000000000000000, 0.0000000000000000000, 0.3984504285222599800 ) ) ;
#215 = COORDINATED_UNIVERSAL_TIME_OFFSET ( 5, 0, .BEHIND. ) ;
#216 = EDGE_CURVE ( 'NONE', #251, #295, #16, .T. ) ;
#217 = PRODUCT_RELATED_PRODUCT_CATEGORY ( 'detail', '', ( #255 ) ) ;
#218 = DIRECTION ( 'NONE',  ( 8.659560562355013000E-017, -0.7071067811865539000, -0.7071067811865411300 ) ) ;
#219 = EDGE_CURVE ( 'NONE', #111, #177, #44, .T. ) ;
#220 = FACE_OUTER_BOUND ( 'NONE', #121, .T. ) ;
#221 = CARTESIAN_POINT ( 'NONE',  ( 0.0000000000000000000, -0.2500000000000000600, -0.05736570293392791900 ) ) ;
#222 = ADVANCED_FACE ( 'NONE', ( #51 ), #122, .T. ) ;
#223 = CALENDAR_DATE ( 2018, 1, 6 ) ;
#224 = CARTESIAN_POINT ( 'NONE',  ( 0.0000000000000000000, 1.292873148000523100E-017, -0.05736570293392787700 ) ) ;
#225 = DIRECTION ( 'NONE',  ( -0.0000000000000000000, -1.836909530733565600E-016, 1.000000000000000000 ) ) ;
#226 = CARTESIAN_POINT ( 'NONE',  ( 0.0000000000000000000, 9.440153695948002400E-017, 0.01301735765611785000 ) ) ;
#227 = EDGE_CURVE ( 'NONE', #295, #1, #73, .T. ) ;
#228 = ORIENTED_EDGE ( 'NONE', *, *, #306, .F. ) ;
#229 =( LENGTH_UNIT ( ) NAMED_UNIT ( * ) SI_UNIT ( $, .METRE. ) );
#230 = EDGE_CURVE ( 'NONE', #251, #1, #12, .T. ) ;
#231 = ORIENTED_EDGE ( 'NONE', *, *, #230, .F. ) ;
#232 = EDGE_CURVE ( 'NONE', #159, #273, #39, .T. ) ;
#233 = ORIENTED_EDGE ( 'NONE', *, *, #172, .T. ) ;
#234 = CLOSED_SHELL ( 'NONE', ( #318, #296, #175, #170, #137, #32, #10, #93, #254, #222 ) ) ;
#235 = DIRECTION ( 'NONE',  ( 0.0000000000000000000, -1.000000000000000000, -2.095556296592407100E-016 ) ) ;
#236 = PRODUCT_DEFINITION ( 'UNKNOWN', '', #289, #126 ) ;
#237 = CARTESIAN_POINT ( 'NONE',  ( 0.0000000000000000000, -0.2500000000000000600, 0.09487001285224323800 ) ) ;
#238 = APPROVAL_ROLE ( '' ) ;
#239 = EDGE_CURVE ( 'NONE', #173, #273, #74, .T. ) ;
#240 = AXIS2_PLACEMENT_3D ( 'NONE', #19, #164, #17 ) ;
#241 = ORIENTED_EDGE ( 'NONE', *, *, #227, .T. ) ;
#242 = AXIS2_PLACEMENT_3D ( 'NONE', #140, #259, #297 ) ;
#243 = PERSON_AND_ORGANIZATION_ROLE ( 'design_owner' ) ;
#244 = CC_DESIGN_DATE_AND_TIME_ASSIGNMENT ( #180, #328, ( #236 ) ) ;
#245 = AXIS2_PLACEMENT_3D ( 'NONE', #300, #58, #325 ) ;
#246 = APPROVAL_PERSON_ORGANIZATION ( #125, #265, #29 ) ;
#247 = DIRECTION ( 'NONE',  ( 0.0000000000000000000, 1.000000000000000000, 1.771934091906849000E-016 ) ) ;
#248 = ORIENTED_EDGE ( 'NONE', *, *, #278, .F. ) ;
#249 = DIRECTION ( 'NONE',  ( 0.0000000000000000000, -1.000000000000000000, -2.048885995248196900E-016 ) ) ;
#250 = AXIS2_PLACEMENT_3D ( 'NONE', #283, #290, #135 ) ;
#251 = VERTEX_POINT ( 'NONE', #91 ) ;
#252 = CIRCLE ( 'NONE', #191, 0.2444322300693972700 ) ;
#253 = CARTESIAN_POINT ( 'NONE',  ( 0.0000000000000000000, -0.2425543048872276000, -0.06763546599460622300 ) ) ;
#254 = ADVANCED_FACE ( 'NONE', ( #55 ), #80, .T. ) ;
#255 = PRODUCT ( '21996-E0W', '21996-E0W', '', ( #132 ) ) ;
#256 = PERSON_AND_ORGANIZATION_ROLE ( 'creator' ) ;
#257 = AXIS2_PLACEMENT_3D ( 'NONE', #214, #326, #247 ) ;
#258 = DIRECTION ( 'NONE',  ( 0.0000000000000000000, 0.0000000000000000000, -1.000000000000000000 ) ) ;
#259 = DIRECTION ( 'NONE',  ( -1.000000000000000000, 1.224646799147353200E-016, 2.249565377136127700E-032 ) ) ;
#260 = SPHERICAL_SURFACE ( 'NONE', #308, 0.3854330708661421500 ) ;
#261 = CARTESIAN_POINT ( 'NONE',  ( 3.061616997868383600E-017, 0.2500000000000000600, -0.05736570293392784200 ) ) ;
#262 = ORIENTED_EDGE ( 'NONE', *, *, #330, .T. ) ;
#263 = AXIS2_PLACEMENT_3D ( 'NONE', #304, #317, #258 ) ;
#264 = AXIS2_PLACEMENT_3D ( 'NONE', #149, #156, #169 ) ;
#265 = APPROVAL ( #109, 'UNSPECIFIED' ) ;
#266 = APPROVAL_ROLE ( '' ) ;
#267 = ORIENTED_EDGE ( 'NONE', *, *, #271, .T. ) ;
#268 = COORDINATED_UNIVERSAL_TIME_OFFSET ( 5, 0, .BEHIND. ) ;
#269 = AXIS2_PLACEMENT_3D ( 'NONE', #47, #298, #294 ) ;
#270 = DIRECTION ( 'NONE',  ( 0.0000000000000000000, 1.000000000000000000, 1.771934091906849000E-016 ) ) ;
#271 = EDGE_CURVE ( 'NONE', #111, #159, #78, .T. ) ;
#272 = PERSON_AND_ORGANIZATION ( #293, #277 ) ;
#273 = VERTEX_POINT ( 'NONE', #83 ) ;
#274 =( CONVERSION_BASED_UNIT ( 'INCH', #130 ) LENGTH_UNIT ( ) NAMED_UNIT ( #324 ) );
#275 = CC_DESIGN_APPROVAL ( #265, ( #289 ) ) ;
#276 = LINE ( 'NONE', #72, #76 ) ;
#277 = ORGANIZATION ( 'UNSPECIFIED', 'UNSPECIFIED', '' ) ;
#278 = EDGE_CURVE ( 'NONE', #295, #173, #276, .T. ) ;
#279 = EDGE_LOOP ( 'NONE', ( #124, #280, #292, #143 ) ) ;
#280 = ORIENTED_EDGE ( 'NONE', *, *, #165, .T. ) ;
#281 = APPROVAL_DATE_TIME ( #291, #265 ) ;
#282 = DIRECTION ( 'NONE',  ( 0.0000000000000000000, -1.000000000000000000, -1.698793983231462000E-016 ) ) ;
#283 = CARTESIAN_POINT ( 'NONE',  ( 0.0000000000000000000, 0.0000000000000000000, 0.6989622395458809900 ) ) ;
#284 = LOCAL_TIME ( 14, 11, 37.00000000000000000, #174 ) ;
#285 = AXIS2_PLACEMENT_3D ( 'NONE', #139, #327, #282 ) ;
#286 = PERSON_AND_ORGANIZATION_ROLE ( 'creator' ) ;
#287 = CYLINDRICAL_SURFACE ( 'NONE', #245, 0.2500000000000000600 ) ;
#288 = ADVANCED_BREP_SHAPE_REPRESENTATION ( '21996-E0W', ( #205, #264 ), #49 ) ;
#289 = PRODUCT_DEFINITION_FORMATION_WITH_SPECIFIED_SOURCE ( 'ANY', '', #255, .NOT_KNOWN. ) ;
#290 = DIRECTION ( 'NONE',  ( 1.000000000000000000, 0.0000000000000000000, 0.0000000000000000000 ) ) ;
#291 = DATE_AND_TIME ( #65, #211 ) ;
#292 = ORIENTED_EDGE ( 'NONE', *, *, #306, .T. ) ;
#293 = PERSON ( 'UNSPECIFIED', 'UNSPECIFIED', 'UNSPECIFIED', ('UNSPECIFIED'), ('UNSPECIFIED'), ('UNSPECIFIED') ) ;
#294 = DIRECTION ( 'NONE',  ( 0.0000000000000000000, -1.000000000000000000, -1.707404996040164000E-016 ) ) ;
#295 = VERTEX_POINT ( 'NONE', #67 ) ;
#296 = ADVANCED_FACE ( 'NONE', ( #77 ), #88, .T. ) ;
#297 = DIRECTION ( 'NONE',  ( -1.224646799147353500E-016, -1.000000000000000000, 0.0000000000000000000 ) ) ;
#298 = DIRECTION ( 'NONE',  ( -0.0000000000000000000, -1.836909530733573000E-016, 1.000000000000000000 ) ) ;
#299 = DIRECTION ( 'NONE',  ( 0.0000000000000000000, -1.000000000000000000, -1.878145495644180300E-016 ) ) ;
#300 = CARTESIAN_POINT ( 'NONE',  ( 0.0000000000000000000, 0.0000000000000000000, 0.01301735765611739000 ) ) ;
#301 = EDGE_CURVE ( 'NONE', #3, #173, #86, .T. ) ;
#302 = CC_DESIGN_PERSON_AND_ORGANIZATION_ASSIGNMENT ( #100, #256, ( #236 ) ) ;
#303 = CARTESIAN_POINT ( 'NONE',  ( 0.0000000000000000000, -0.2500000000000000600, -0.05736570293392793300 ) ) ;
#304 = CARTESIAN_POINT ( 'NONE',  ( 0.0000000000000000000, 0.0000000000000000000, 0.3984504285222599800 ) ) ;
#305 = CIRCLE ( 'NONE', #269, 0.2500000000000000600 ) ;
#306 = EDGE_CURVE ( 'NONE', #3, #177, #79, .T. ) ;
#307 = EDGE_LOOP ( 'NONE', ( #248, #167, #158, #43 ) ) ;
#308 = AXIS2_PLACEMENT_3D ( 'NONE', #202, #144, #270 ) ;
#309 = AXIS2_PLACEMENT_3D ( 'NONE', #224, #183, #36 ) ;
#310 = PRODUCT_DEFINITION_SHAPE ( 'NONE', 'NONE',  #236 ) ;
#311 = PERSON_AND_ORGANIZATION ( #293, #277 ) ;
#312 = APPLICATION_PROTOCOL_DEFINITION ( 'international standard', 'config_control_design', 1994, #75 ) ;
#313 = LOCAL_TIME ( 14, 11, 37.00000000000000000, #215 ) ;
#314 = AXIS2_PLACEMENT_3D ( 'NONE', #197, #195, #249 ) ;
#315 = EDGE_CURVE ( 'NONE', #177, #273, #85, .T. ) ;
#316 = AXIS2_PLACEMENT_3D ( 'NONE', #92, #178, #96 ) ;
#317 = DIRECTION ( 'NONE',  ( 1.000000000000000000, 0.0000000000000000000, 0.0000000000000000000 ) ) ;
#318 = ADVANCED_FACE ( 'NONE', ( #81 ), #117, .T. ) ;
#319 = CIRCLE ( 'NONE', #242, 0.3854330708661421500 ) ;
#320 = AXIS2_PLACEMENT_3D ( 'NONE', #206, #198, #185 ) ;
#321 = FACE_OUTER_BOUND ( 'NONE', #69, .T. ) ;
#322 = UNCERTAINTY_MEASURE_WITH_UNIT (LENGTH_MEASURE( 1.000000000000000100E-005 ), #274, 'distance_accuracy_value', 'NONE');
#323 = CC_DESIGN_PERSON_AND_ORGANIZATION_ASSIGNMENT ( #161, #208, ( #289 ) ) ;
#324 = DIMENSIONAL_EXPONENTS ( 1.000000000000000000, 0.0000000000000000000, 0.0000000000000000000, 0.0000000000000000000, 0.0000000000000000000, 0.0000000000000000000, 0.0000000000000000000 ) ;
#325 = DIRECTION ( 'NONE',  ( 0.0000000000000000000, -1.000000000000000000, -1.878145495644180300E-016 ) ) ;
#326 = DIRECTION ( 'NONE',  ( -1.000000000000000000, 0.0000000000000000000, 0.0000000000000000000 ) ) ;
#327 = DIRECTION ( 'NONE',  ( 1.000000000000000000, 0.0000000000000000000, 0.0000000000000000000 ) ) ;
#328 = DATE_TIME_ROLE ( 'creation_date' ) ;
#329 = ORIENTED_EDGE ( 'NONE', *, *, #219, .F. ) ;
#330 = EDGE_CURVE ( 'NONE', #1, #295, #114, .T. ) ;
ENDSEC;
END-ISO-10303-21;
