ISO-10303-21;
HEADER;
FILE_DESCRIPTION (( 'STEP AP203' ),
    '1' );
FILE_NAME ('Web Model 43216_43225.step',
    '2018-03-12T19:18:34',
    ( '' ),
    ( '' ),
    'SwSTEP 2.0',
    'SolidWorks 2016',
    '' );
FILE_SCHEMA (( 'CONFIG_CONTROL_DESIGN' ));
ENDSEC;

DATA;
#1 = ORIENTED_EDGE ( 'NONE', *, *, #77, .F. ) ;
#2 = EDGE_CURVE ( 'NONE', #32, #208, #203, .T. ) ;
#3 = DIRECTION ( 'NONE',  ( -0.0000000000000000000, 1.000000000000000000, 0.0000000000000000000 ) ) ;
#4 = ORIENTED_EDGE ( 'NONE', *, *, #96, .F. ) ;
#5 = DIRECTION ( 'NONE',  ( 1.000000000000000000, 0.0000000000000000000, 0.0000000000000000000 ) ) ;
#6 = ADVANCED_FACE ( 'NONE', ( #10 ), #98, .T. ) ;
#7 = ORIENTED_EDGE ( 'NONE', *, *, #217, .T. ) ;
#8 = DATE_AND_TIME ( #62, #97 ) ;
#9 = LINE ( 'NONE', #136, #127 ) ;
#10 = FACE_OUTER_BOUND ( 'NONE', #79, .T. ) ;
#11 = FACE_OUTER_BOUND ( 'NONE', #104, .T. ) ;
#12 = CLOSED_SHELL ( 'NONE', ( #171, #49, #81, #213, #6, #122 ) ) ;
#13 = DIRECTION ( 'NONE',  ( 0.0000000000000000000, -0.0000000000000000000, -1.000000000000000000 ) ) ;
#14 = COORDINATED_UNIVERSAL_TIME_OFFSET ( 5, 0, .BEHIND. ) ;
#15 = MECHANICAL_CONTEXT ( 'NONE', #181, 'mechanical' ) ;
#16 = LINE ( 'NONE', #161, #188 ) ;
#17 = APPLICATION_PROTOCOL_DEFINITION ( 'international standard', 'config_control_design', 1994, #78 ) ;
#18 = DIRECTION ( 'NONE',  ( 0.0000000000000000000, -2.081668171172168500E-016, -1.000000000000000000 ) ) ;
#19 = ORIENTED_EDGE ( 'NONE', *, *, #2, .F. ) ;
#20 = VECTOR ( 'NONE', #168, 1000.000000000000000 ) ;
#21 = CC_DESIGN_APPROVAL ( #119, ( #107 ) ) ;
#22 = DIRECTION ( 'NONE',  ( -0.0000000000000000000, -0.0000000000000000000, 1.000000000000000000 ) ) ;
#23 = CARTESIAN_POINT ( 'NONE',  ( 4.750000000000000000, 12.50000000000000000, -12.50000000000000000 ) ) ;
#24 = VECTOR ( 'NONE', #22, 1000.000000000000000 ) ;
#25 = DIRECTION ( 'NONE',  ( 0.0000000000000000000, 0.0000000000000000000, -1.000000000000000000 ) ) ;
#26 = EDGE_CURVE ( 'NONE', #32, #143, #124, .T. ) ;
#27 = APPROVAL_DATE_TIME ( #28, #119 ) ;
#28 = DATE_AND_TIME ( #132, #231 ) ;
#29 = LINE ( 'NONE', #37, #76 ) ;
#30 = AXIS2_PLACEMENT_3D ( 'NONE', #193, #3, #191 ) ;
#31 = ORIENTED_EDGE ( 'NONE', *, *, #162, .T. ) ;
#32 = VERTEX_POINT ( 'NONE', #23 ) ;
#33 = CARTESIAN_POINT ( 'NONE',  ( 0.0000000000000000000, 0.0000000000000000000, 0.0000000000000000000 ) ) ;
#34 = PERSON ( 'UNSPECIFIED', 'UNSPECIFIED', 'UNSPECIFIED', ('UNSPECIFIED'), ('UNSPECIFIED'), ('UNSPECIFIED') ) ;
#35 = CC_DESIGN_PERSON_AND_ORGANIZATION_ASSIGNMENT ( #59, #221, ( #107 ) ) ;
#36 = PERSON_AND_ORGANIZATION_ROLE ( 'design_owner' ) ;
#37 = CARTESIAN_POINT ( 'NONE',  ( 4.750000000000000000, 12.50000000000000000, -12.50000000000000000 ) ) ;
#38 = EDGE_LOOP ( 'NONE', ( #118, #138, #53, #101 ) ) ;
#39 = EDGE_CURVE ( 'NONE', #208, #167, #166, .T. ) ;
#40 = ORIENTED_EDGE ( 'NONE', *, *, #217, .F. ) ;
#41 = CARTESIAN_POINT ( 'NONE',  ( 4.750000000000000000, 12.50000000000000000, -12.50000000000000000 ) ) ;
#42 = DIRECTION ( 'NONE',  ( 0.0000000000000000000, -1.000000000000000000, 2.081668171172168500E-016 ) ) ;
#43 = PLANE ( 'NONE',  #30 ) ;
#44 = DIRECTION ( 'NONE',  ( 0.0000000000000000000, 0.0000000000000000000, -1.000000000000000000 ) ) ;
#45 = DATE_AND_TIME ( #112, #130 ) ;
#46 = APPROVAL_DATE_TIME ( #8, #115 ) ;
#47 = ORIENTED_EDGE ( 'NONE', *, *, #211, .T. ) ;
#48 = PLANE ( 'NONE',  #109 ) ;
#49 = ADVANCED_FACE ( 'NONE', ( #151 ), #43, .F. ) ;
#50 = SECURITY_CLASSIFICATION ( '', '', #94 ) ;
#51 = EDGE_CURVE ( 'NONE', #167, #216, #100, .T. ) ;
#52 = PERSON_AND_ORGANIZATION ( #34, #120 ) ;
#53 = ORIENTED_EDGE ( 'NONE', *, *, #39, .F. ) ;
#54 = ORIENTED_EDGE ( 'NONE', *, *, #211, .F. ) ;
#55 = PLANE ( 'NONE',  #233 ) ;
#56 = PERSON_AND_ORGANIZATION ( #34, #120 ) ;
#57 = FACE_OUTER_BOUND ( 'NONE', #218, .T. ) ;
#58 = DIRECTION ( 'NONE',  ( 1.000000000000000000, 0.0000000000000000000, 0.0000000000000000000 ) ) ;
#59 = PERSON_AND_ORGANIZATION ( #34, #120 ) ;
#60 = APPROVAL_PERSON_ORGANIZATION ( #85, #119, #131 ) ;
#61 = ORIENTED_EDGE ( 'NONE', *, *, #39, .T. ) ;
#62 = CALENDAR_DATE ( 2018, 12, 3 ) ;
#63 = UNCERTAINTY_MEASURE_WITH_UNIT (LENGTH_MEASURE( 1.000000000000000100E-005 ), #75, 'distance_accuracy_value', 'NONE');
#64 = EDGE_CURVE ( 'NONE', #143, #129, #215, .T. ) ;
#65 = ORIENTED_EDGE ( 'NONE', *, *, #2, .T. ) ;
#66 = CARTESIAN_POINT ( 'NONE',  ( -4.750000000000000000, 12.50000000000000000, 12.49999999999999600 ) ) ;
#67 = DIRECTION ( 'NONE',  ( -1.000000000000000000, -0.0000000000000000000, -0.0000000000000000000 ) ) ;
#68 = VECTOR ( 'NONE', #206, 1000.000000000000000 ) ;
#69 = DIRECTION ( 'NONE',  ( -1.000000000000000000, -0.0000000000000000000, -0.0000000000000000000 ) ) ;
#70 = ORIENTED_EDGE ( 'NONE', *, *, #162, .F. ) ;
#71 = CC_DESIGN_APPROVAL ( #115, ( #192 ) ) ;
#72 = PERSON_AND_ORGANIZATION ( #34, #120 ) ;
#73 = EDGE_CURVE ( 'NONE', #140, #143, #74, .T. ) ;
#74 = LINE ( 'NONE', #103, #20 ) ;
#75 =( LENGTH_UNIT ( ) NAMED_UNIT ( * ) SI_UNIT ( .MILLI., .METRE. ) );
#76 = VECTOR ( 'NONE', #235, 1000.000000000000000 ) ;
#77 = EDGE_CURVE ( 'NONE', #208, #129, #9, .T. ) ;
#78 = APPLICATION_CONTEXT ( 'configuration controlled 3d designs of mechanical parts and assemblies' ) ;
#79 = EDGE_LOOP ( 'NONE', ( #61, #31, #47, #65 ) ) ;
#80 = CC_DESIGN_PERSON_AND_ORGANIZATION_ASSIGNMENT ( #108, #179, ( #192 ) ) ;
#81 = ADVANCED_FACE ( 'NONE', ( #57 ), #121, .F. ) ;
#82 = CARTESIAN_POINT ( 'NONE',  ( 4.750000000000000000, -12.50000000000000000, 12.50000000000000200 ) ) ;
#83 = DIRECTION ( 'NONE',  ( -1.000000000000000000, -0.0000000000000000000, -0.0000000000000000000 ) ) ;
#84 = DESIGN_CONTEXT ( 'detailed design', #78, 'design' ) ;
#85 = PERSON_AND_ORGANIZATION ( #34, #120 ) ;
#86 = LINE ( 'NONE', #125, #226 ) ;
#87 = CC_DESIGN_APPROVAL ( #163, ( #50 ) ) ;
#88 = VERTEX_POINT ( 'NONE', #139 ) ;
#89 = EDGE_LOOP ( 'NONE', ( #232, #1, #19, #117 ) ) ;
#90 = APPROVAL_STATUS ( 'not_yet_approved' ) ;
#91 = AXIS2_PLACEMENT_3D ( 'NONE', #123, #5, #153 ) ;
#92 = PRODUCT_DEFINITION_SHAPE ( 'NONE', 'NONE',  #192 ) ;
#93 = DIRECTION ( 'NONE',  ( 0.0000000000000000000, 0.0000000000000000000, 1.000000000000000000 ) ) ;
#94 = SECURITY_CLASSIFICATION_LEVEL ( 'unclassified' ) ;
#95 = PRODUCT ( 'Web Model 43216_43225', 'Web Model 43216_43225', '', ( #15 ) ) ;
#96 = EDGE_CURVE ( 'NONE', #129, #216, #207, .T. ) ;
#97 = LOCAL_TIME ( 15, 18, 34.00000000000000000, #180 ) ;
#98 = PLANE ( 'NONE',  #91 ) ;
#99 = AXIS2_PLACEMENT_3D ( 'NONE', #41, #172, #209 ) ;
#100 = LINE ( 'NONE', #82, #183 ) ;
#101 = ORIENTED_EDGE ( 'NONE', *, *, #77, .T. ) ;
#102 = DIRECTION ( 'NONE',  ( -0.0000000000000000000, -0.0000000000000000000, 1.000000000000000000 ) ) ;
#103 = CARTESIAN_POINT ( 'NONE',  ( -4.750000000000000000, 12.50000000000000000, -12.50000000000000000 ) ) ;
#104 = EDGE_LOOP ( 'NONE', ( #4, #149, #199, #173 ) ) ;
#105 = ORIENTED_EDGE ( 'NONE', *, *, #73, .T. ) ;
#106 = CARTESIAN_POINT ( 'NONE',  ( -4.750000000000000000, 12.50000000000000000, -12.50000000000000000 ) ) ;
#107 = PRODUCT_DEFINITION_FORMATION_WITH_SPECIFIED_SOURCE ( 'ANY', '', #95, .NOT_KNOWN. ) ;
#108 = PERSON_AND_ORGANIZATION ( #34, #120 ) ;
#109 = AXIS2_PLACEMENT_3D ( 'NONE', #195, #18, #200 ) ;
#110 = APPROVAL_STATUS ( 'not_yet_approved' ) ;
#111 = CC_DESIGN_SECURITY_CLASSIFICATION ( #50, ( #107 ) ) ;
#112 = CALENDAR_DATE ( 2018, 12, 3 ) ;
#113 = APPROVAL_PERSON_ORGANIZATION ( #56, #115, #160 ) ;
#114 = APPROVAL_ROLE ( '' ) ;
#115 = APPROVAL ( #90, 'UNSPECIFIED' ) ;
#116 = CARTESIAN_POINT ( 'NONE',  ( 4.750000000000000000, 12.50000000000000000, 12.49999999999999600 ) ) ;
#117 = ORIENTED_EDGE ( 'NONE', *, *, #26, .T. ) ;
#118 = ORIENTED_EDGE ( 'NONE', *, *, #96, .T. ) ;
#119 = APPROVAL ( #110, 'UNSPECIFIED' ) ;
#120 = ORGANIZATION ( 'UNSPECIFIED', 'UNSPECIFIED', '' ) ;
#121 = PLANE ( 'NONE',  #99 ) ;
#122 = ADVANCED_FACE ( 'NONE', ( #11 ), #170, .F. ) ;
#123 = CARTESIAN_POINT ( 'NONE',  ( 4.750000000000000000, 0.0000000000000000000, 0.0000000000000000000 ) ) ;
#124 = LINE ( 'NONE', #227, #189 ) ;
#125 = CARTESIAN_POINT ( 'NONE',  ( 4.750000000000000000, -12.50000000000000000, 12.50000000000000200 ) ) ;
#126 = DATE_AND_TIME ( #150, #222 ) ;
#127 = VECTOR ( 'NONE', #67, 1000.000000000000000 ) ;
#128 = PRODUCT_RELATED_PRODUCT_CATEGORY ( 'detail', '', ( #95 ) ) ;
#129 = VERTEX_POINT ( 'NONE', #228 ) ;
#130 = LOCAL_TIME ( 15, 18, 34.00000000000000000, #204 ) ;
#131 = APPROVAL_ROLE ( '' ) ;
#132 = CALENDAR_DATE ( 2018, 12, 3 ) ;
#133 = CARTESIAN_POINT ( 'NONE',  ( -4.750000000000000000, -12.50000000000000000, 12.50000000000000200 ) ) ;
#134 = DIRECTION ( 'NONE',  ( 0.0000000000000000000, -1.000000000000000000, 0.0000000000000000000 ) ) ;
#135 = CC_DESIGN_PERSON_AND_ORGANIZATION_ASSIGNMENT ( #72, #144, ( #107 ) ) ;
#136 = CARTESIAN_POINT ( 'NONE',  ( 4.750000000000000000, 12.50000000000000000, 12.49999999999999600 ) ) ;
#137 = VECTOR ( 'NONE', #156, 1000.000000000000000 ) ;
#138 = ORIENTED_EDGE ( 'NONE', *, *, #51, .F. ) ;
#139 = CARTESIAN_POINT ( 'NONE',  ( 4.750000000000000000, -12.50000000000000000, -12.50000000000000500 ) ) ;
#140 = VERTEX_POINT ( 'NONE', #194 ) ;
#141 = CC_DESIGN_DATE_AND_TIME_ASSIGNMENT ( #225, #219, ( #192 ) ) ;
#142 =( GEOMETRIC_REPRESENTATION_CONTEXT ( 3 ) GLOBAL_UNCERTAINTY_ASSIGNED_CONTEXT ( ( #63 ) ) GLOBAL_UNIT_ASSIGNED_CONTEXT ( ( #75, #164, #145 ) ) REPRESENTATION_CONTEXT ( 'NONE', 'WORKASPACE' ) );
#143 = VERTEX_POINT ( 'NONE', #106 ) ;
#144 = PERSON_AND_ORGANIZATION_ROLE ( 'design_supplier' ) ;
#145 =( NAMED_UNIT ( * ) SI_UNIT ( $, .STERADIAN. ) SOLID_ANGLE_UNIT ( ) );
#146 = COORDINATED_UNIVERSAL_TIME_OFFSET ( 5, 0, .BEHIND. ) ;
#147 = CC_DESIGN_PERSON_AND_ORGANIZATION_ASSIGNMENT ( #157, #201, ( #50 ) ) ;
#148 = CARTESIAN_POINT ( 'NONE',  ( 4.750000000000000000, 12.50000000000000000, 12.49999999999999600 ) ) ;
#149 = ORIENTED_EDGE ( 'NONE', *, *, #64, .F. ) ;
#150 = CALENDAR_DATE ( 2018, 12, 3 ) ;
#151 = FACE_OUTER_BOUND ( 'NONE', #158, .T. ) ;
#152 = CARTESIAN_POINT ( 'NONE',  ( -4.750000000000000000, 12.50000000000000000, 12.49999999999999600 ) ) ;
#153 = DIRECTION ( 'NONE',  ( 0.0000000000000000000, 0.0000000000000000000, -1.000000000000000000 ) ) ;
#154 = ORIENTED_EDGE ( 'NONE', *, *, #26, .F. ) ;
#155 = DIRECTION ( 'NONE',  ( 1.000000000000000000, 0.0000000000000000000, 0.0000000000000000000 ) ) ;
#156 = DIRECTION ( 'NONE',  ( 0.0000000000000000000, 0.0000000000000000000, -1.000000000000000000 ) ) ;
#157 = PERSON_AND_ORGANIZATION ( #34, #120 ) ;
#158 = EDGE_LOOP ( 'NONE', ( #205, #40, #70, #236 ) ) ;
#159 = CC_DESIGN_DATE_AND_TIME_ASSIGNMENT ( #126, #220, ( #50 ) ) ;
#160 = APPROVAL_ROLE ( '' ) ;
#161 = CARTESIAN_POINT ( 'NONE',  ( 4.750000000000000000, -12.50000000000000000, -12.50000000000000500 ) ) ;
#162 = EDGE_CURVE ( 'NONE', #167, #88, #86, .T. ) ;
#163 = APPROVAL ( #182, 'UNSPECIFIED' ) ;
#164 =( NAMED_UNIT ( * ) PLANE_ANGLE_UNIT ( ) SI_UNIT ( $, .RADIAN. ) );
#165 = APPROVAL_PERSON_ORGANIZATION ( #52, #163, #114 ) ;
#166 = LINE ( 'NONE', #186, #223 ) ;
#167 = VERTEX_POINT ( 'NONE', #175 ) ;
#168 = DIRECTION ( 'NONE',  ( -0.0000000000000000000, 1.000000000000000000, 2.081668171172168500E-016 ) ) ;
#169 = ADVANCED_BREP_SHAPE_REPRESENTATION ( 'Web Model 43216_43225', ( #185, #178 ), #142 ) ;
#170 = PLANE ( 'NONE',  #229 ) ;
#171 = ADVANCED_FACE ( 'NONE', ( #196 ), #48, .F. ) ;
#172 = DIRECTION ( 'NONE',  ( 0.0000000000000000000, -2.081668171172168500E-016, 1.000000000000000000 ) ) ;
#173 = ORIENTED_EDGE ( 'NONE', *, *, #202, .F. ) ;
#174 = CARTESIAN_POINT ( 'NONE',  ( -4.750000000000000000, -12.50000000000000000, 12.50000000000000200 ) ) ;
#175 = CARTESIAN_POINT ( 'NONE',  ( 4.750000000000000000, -12.50000000000000000, 12.50000000000000200 ) ) ;
#176 = LINE ( 'NONE', #174, #137 ) ;
#177 = CC_DESIGN_PERSON_AND_ORGANIZATION_ASSIGNMENT ( #230, #36, ( #95 ) ) ;
#178 = AXIS2_PLACEMENT_3D ( 'NONE', #33, #93, #58 ) ;
#179 = PERSON_AND_ORGANIZATION_ROLE ( 'creator' ) ;
#180 = COORDINATED_UNIVERSAL_TIME_OFFSET ( 5, 0, .BEHIND. ) ;
#181 = APPLICATION_CONTEXT ( 'configuration controlled 3d designs of mechanical parts and assemblies' ) ;
#182 = APPROVAL_STATUS ( 'not_yet_approved' ) ;
#183 = VECTOR ( 'NONE', #83, 1000.000000000000000 ) ;
#184 = APPLICATION_PROTOCOL_DEFINITION ( 'international standard', 'config_control_design', 1994, #181 ) ;
#185 = MANIFOLD_SOLID_BREP ( 'Boss-Extrude1', #12 ) ;
#186 = CARTESIAN_POINT ( 'NONE',  ( 4.750000000000000000, 12.50000000000000000, 12.49999999999999600 ) ) ;
#187 = CALENDAR_DATE ( 2018, 12, 3 ) ;
#188 = VECTOR ( 'NONE', #237, 1000.000000000000000 ) ;
#189 = VECTOR ( 'NONE', #69, 1000.000000000000000 ) ;
#190 = CARTESIAN_POINT ( 'NONE',  ( 4.750000000000000000, 12.50000000000000000, 12.49999999999999600 ) ) ;
#191 = DIRECTION ( 'NONE',  ( 0.0000000000000000000, -0.0000000000000000000, 1.000000000000000000 ) ) ;
#192 = PRODUCT_DEFINITION ( 'UNKNOWN', '', #107, #84 ) ;
#193 = CARTESIAN_POINT ( 'NONE',  ( 4.750000000000000000, -12.50000000000000000, 12.50000000000000200 ) ) ;
#194 = CARTESIAN_POINT ( 'NONE',  ( -4.750000000000000000, -12.50000000000000000, -12.50000000000000500 ) ) ;
#195 = CARTESIAN_POINT ( 'NONE',  ( 4.750000000000000000, 12.50000000000000000, 12.49999999999999600 ) ) ;
#196 = FACE_OUTER_BOUND ( 'NONE', #38, .T. ) ;
#197 = VECTOR ( 'NONE', #102, 1000.000000000000000 ) ;
#198 = COORDINATED_UNIVERSAL_TIME_OFFSET ( 5, 0, .BEHIND. ) ;
#199 = ORIENTED_EDGE ( 'NONE', *, *, #73, .F. ) ;
#200 = DIRECTION ( 'NONE',  ( 0.0000000000000000000, 1.000000000000000000, -2.081668171172168500E-016 ) ) ;
#201 = PERSON_AND_ORGANIZATION_ROLE ( 'classification_officer' ) ;
#202 = EDGE_CURVE ( 'NONE', #216, #140, #176, .T. ) ;
#203 = LINE ( 'NONE', #190, #197 ) ;
#204 = COORDINATED_UNIVERSAL_TIME_OFFSET ( 5, 0, .BEHIND. ) ;
#205 = ORIENTED_EDGE ( 'NONE', *, *, #202, .T. ) ;
#206 = DIRECTION ( 'NONE',  ( 0.0000000000000000000, -1.000000000000000000, 2.081668171172168500E-016 ) ) ;
#207 = LINE ( 'NONE', #66, #68 ) ;
#208 = VERTEX_POINT ( 'NONE', #148 ) ;
#209 = DIRECTION ( 'NONE',  ( 0.0000000000000000000, -1.000000000000000000, -2.081668171172168500E-016 ) ) ;
#210 = SHAPE_DEFINITION_REPRESENTATION ( #92, #169 ) ;
#211 = EDGE_CURVE ( 'NONE', #88, #32, #29, .T. ) ;
#212 = FACE_OUTER_BOUND ( 'NONE', #89, .T. ) ;
#213 = ADVANCED_FACE ( 'NONE', ( #212 ), #55, .F. ) ;
#214 = APPROVAL_DATE_TIME ( #45, #163 ) ;
#215 = LINE ( 'NONE', #152, #24 ) ;
#216 = VERTEX_POINT ( 'NONE', #133 ) ;
#217 = EDGE_CURVE ( 'NONE', #88, #140, #16, .T. ) ;
#218 = EDGE_LOOP ( 'NONE', ( #105, #154, #54, #7 ) ) ;
#219 = DATE_TIME_ROLE ( 'creation_date' ) ;
#220 = DATE_TIME_ROLE ( 'classification_date' ) ;
#221 = PERSON_AND_ORGANIZATION_ROLE ( 'creator' ) ;
#222 = LOCAL_TIME ( 15, 18, 34.00000000000000000, #14 ) ;
#223 = VECTOR ( 'NONE', #42, 1000.000000000000000 ) ;
#224 = CARTESIAN_POINT ( 'NONE',  ( -4.750000000000000000, 0.0000000000000000000, 0.0000000000000000000 ) ) ;
#225 = DATE_AND_TIME ( #187, #234 ) ;
#226 = VECTOR ( 'NONE', #25, 1000.000000000000000 ) ;
#227 = CARTESIAN_POINT ( 'NONE',  ( 4.750000000000000000, 12.50000000000000000, -12.50000000000000000 ) ) ;
#228 = CARTESIAN_POINT ( 'NONE',  ( -4.750000000000000000, 12.50000000000000000, 12.49999999999999600 ) ) ;
#229 = AXIS2_PLACEMENT_3D ( 'NONE', #224, #155, #44 ) ;
#230 = PERSON_AND_ORGANIZATION ( #34, #120 ) ;
#231 = LOCAL_TIME ( 15, 18, 34.00000000000000000, #198 ) ;
#232 = ORIENTED_EDGE ( 'NONE', *, *, #64, .T. ) ;
#233 = AXIS2_PLACEMENT_3D ( 'NONE', #116, #134, #13 ) ;
#234 = LOCAL_TIME ( 15, 18, 34.00000000000000000, #146 ) ;
#235 = DIRECTION ( 'NONE',  ( -0.0000000000000000000, 1.000000000000000000, 2.081668171172168500E-016 ) ) ;
#236 = ORIENTED_EDGE ( 'NONE', *, *, #51, .T. ) ;
#237 = DIRECTION ( 'NONE',  ( -1.000000000000000000, -0.0000000000000000000, -0.0000000000000000000 ) ) ;
ENDSEC;
END-ISO-10303-21;
