ISO-10303-21;
HEADER;
FILE_DESCRIPTION (( 'STEP AP203' ),
    '1' );
FILE_NAME ('24981-E0W.STEP',
    '2012-09-28T16:14:13',
    ( 'Admin' ),
    ( 'Thorlabs, Inc.' ),
    'SwSTEP 2.0',
    'SolidWorks 2011',
    '' );
FILE_SCHEMA (( 'CONFIG_CONTROL_DESIGN' ));
ENDSEC;

DATA;
#1 = CARTESIAN_POINT ( 'NONE',  ( 0.0000000000000000000, 0.0000000000000000000, -1.753578643762687700 ) ) ;
#2 = AXIS2_PLACEMENT_3D ( 'NONE', #1, #3, #4 ) ;
#3 = DIRECTION ( 'NONE',  ( -0.0000000000000000000, -0.0000000000000000000, 1.000000000000000000 ) ) ;
#4 = DIRECTION ( 'NONE',  ( 1.000000000000000000, 0.0000000000000000000, 0.0000000000000000000 ) ) ;
#5 = CIRCLE ( 'NONE', #2, 12.69999999999999900 ) ;
#6 = ADVANCED_FACE ( 'NONE', ( #180 ), #198, .T. ) ;
#7 = VERTEX_POINT ( 'NONE', #16 ) ;
#8 = ORIENTED_EDGE ( 'NONE', *, *, #66, .F. ) ;
#9 = ADVANCED_FACE ( 'NONE', ( #181 ), #137, .T. ) ;
#10 = ORIENTED_EDGE ( 'NONE', *, *, #65, .T. ) ;
#11 = EDGE_CURVE ( 'NONE', #13, #15, #141, .T. ) ;
#12 = EDGE_CURVE ( 'NONE', #7, #63, #133, .T. ) ;
#13 = VERTEX_POINT ( 'NONE', #112 ) ;
#14 = VERTEX_POINT ( 'NONE', #138 ) ;
#15 = VERTEX_POINT ( 'NONE', #111 ) ;
#16 = CARTESIAN_POINT ( 'NONE',  ( -12.55857864376269200, 1.537982313792428900E-015, 0.1453995828268987700 ) ) ;
#17 = ORIENTED_EDGE ( 'NONE', *, *, #170, .F. ) ;
#18 = EDGE_LOOP ( 'NONE', ( #160, #164, #62, #64 ) ) ;
#19 = EDGE_CURVE ( 'NONE', #14, #15, #106, .T. ) ;
#20 = ADVANCED_FACE ( 'NONE', ( #110 ), #113, .T. ) ;
#21 = VERTEX_POINT ( 'NONE', #100 ) ;
#22 = ORIENTED_EDGE ( 'NONE', *, *, #166, .T. ) ;
#23 = VERTEX_POINT ( 'NONE', #58 ) ;
#24 = ORIENTED_EDGE ( 'NONE', *, *, #66, .T. ) ;
#25 = EDGE_CURVE ( 'NONE', #67, #63, #108, .T. ) ;
#26 = ORIENTED_EDGE ( 'NONE', *, *, #25, .F. ) ;
#27 = ADVANCED_FACE ( 'NONE', ( #60 ), #107, .T. ) ;
#28 = ADVANCED_FACE ( 'NONE', ( #43 ), #35, .T. ) ;
#29 = EDGE_CURVE ( 'NONE', #13, #167, #109, .T. ) ;
#30 = ORIENTED_EDGE ( 'NONE', *, *, #29, .F. ) ;
#31 = ORIENTED_EDGE ( 'NONE', *, *, #65, .F. ) ;
#32 = ADVANCED_FACE ( 'NONE', ( #98 ), #48, .T. ) ;
#33 = EDGE_CURVE ( 'NONE', #7, #67, #38, .T. ) ;
#34 = ORIENTED_EDGE ( 'NONE', *, *, #25, .T. ) ;
#35 = CYLINDRICAL_SURFACE ( 'NONE', #101, 12.69999999999999900 ) ;
#36 = CARTESIAN_POINT ( 'NONE',  ( 0.0000000000000000000, 0.0000000000000000000, -1.895000000000000900 ) ) ;
#37 = DIRECTION ( 'NONE',  ( 1.000000000000000000, 0.0000000000000000000, 0.0000000000000000000 ) ) ;
#38 = CIRCLE ( 'NONE', #88, 12.55857864376269200 ) ;
#39 = DIRECTION ( 'NONE',  ( -0.0000000000000000000, -0.0000000000000000000, 1.000000000000000000 ) ) ;
#40 = DIRECTION ( 'NONE',  ( 1.000000000000000000, 0.0000000000000000000, 0.0000000000000000000 ) ) ;
#41 = DIRECTION ( 'NONE',  ( 1.000000000000000000, 0.0000000000000000000, 0.0000000000000000000 ) ) ;
#42 = CARTESIAN_POINT ( 'NONE',  ( 0.0000000000000000000, 0.0000000000000000000, 35.72254576870004400 ) ) ;
#43 = FACE_OUTER_BOUND ( 'NONE', #18, .T. ) ;
#44 = DIRECTION ( 'NONE',  ( -0.0000000000000000000, -0.0000000000000000000, 1.000000000000000000 ) ) ;
#45 = DIRECTION ( 'NONE',  ( 0.0000000000000000000, 0.0000000000000000000, -1.000000000000000000 ) ) ;
#46 = DIRECTION ( 'NONE',  ( 0.0000000000000000000, -1.000000000000000000, 0.0000000000000000000 ) ) ;
#47 = AXIS2_PLACEMENT_3D ( 'NONE', #59, #46, #45 ) ;
#48 = CONICAL_SURFACE ( 'NONE', #54, 12.55857864376269000, 0.7853981633974360700 ) ;
#49 = AXIS2_PLACEMENT_3D ( 'NONE', #52, #51, #41 ) ;
#50 = DIRECTION ( 'NONE',  ( -0.0000000000000000000, -0.0000000000000000000, 1.000000000000000000 ) ) ;
#51 = DIRECTION ( 'NONE',  ( -0.0000000000000000000, -0.0000000000000000000, 1.000000000000000000 ) ) ;
#52 = CARTESIAN_POINT ( 'NONE',  ( 0.0000000000000000000, 0.0000000000000000000, -44.11499917211480000 ) ) ;
#53 = LINE ( 'NONE', #127, #126 ) ;
#54 = AXIS2_PLACEMENT_3D ( 'NONE', #99, #92, #91 ) ;
#55 = DIRECTION ( 'NONE',  ( -1.000000000000000000, 0.0000000000000000000, 0.0000000000000000000 ) ) ;
#56 = DIRECTION ( 'NONE',  ( 0.0000000000000000000, 0.0000000000000000000, -1.000000000000000000 ) ) ;
#57 = AXIS2_PLACEMENT_3D ( 'NONE', #129, #56, #55 ) ;
#58 = CARTESIAN_POINT ( 'NONE',  ( 12.69999999999999900, 0.0000000000000000000, 0.003978226589582134500 ) ) ;
#59 = CARTESIAN_POINT ( 'NONE',  ( -0.008728229770511158900, 0.0000000000000000000, -44.11499917211480000 ) ) ;
#60 = FACE_OUTER_BOUND ( 'NONE', #69, .T. ) ;
#61 = EDGE_CURVE ( 'NONE', #167, #14, #53, .T. ) ;
#62 = ORIENTED_EDGE ( 'NONE', *, *, #168, .F. ) ;
#63 = VERTEX_POINT ( 'NONE', #84 ) ;
#64 = ORIENTED_EDGE ( 'NONE', *, *, #186, .F. ) ;
#65 = EDGE_CURVE ( 'NONE', #167, #13, #89, .T. ) ;
#66 = EDGE_CURVE ( 'NONE', #67, #7, #117, .T. ) ;
#67 = VERTEX_POINT ( 'NONE', #95 ) ;
#68 = ORIENTED_EDGE ( 'NONE', *, *, #11, .T. ) ;
#69 = EDGE_LOOP ( 'NONE', ( #199, #145, #34 ) ) ;
#70 = ORIENTED_EDGE ( 'NONE', *, *, #61, .F. ) ;
#71 = DIRECTION ( 'NONE',  ( 1.000000000000000000, 0.0000000000000000000, 0.0000000000000000000 ) ) ;
#72 = DIRECTION ( 'NONE',  ( -0.0000000000000000000, -0.0000000000000000000, 1.000000000000000000 ) ) ;
#73 = CARTESIAN_POINT ( 'NONE',  ( 12.55857864376269000, 0.0000000000000000000, -1.895000000000000900 ) ) ;
#74 = DIRECTION ( 'NONE',  ( -0.0000000000000000000, -0.0000000000000000000, 1.000000000000000000 ) ) ;
#75 = VECTOR ( 'NONE', #74, 1000.000000000000000 ) ;
#76 = CARTESIAN_POINT ( 'NONE',  ( -12.69999999999999900, 1.555301434917138400E-015, 35.72254576870004400 ) ) ;
#77 = CARTESIAN_POINT ( 'NONE',  ( 12.69999999999999900, 1.555301434917138400E-015, 0.003978226589582134500 ) ) ;
#78 = LINE ( 'NONE', #151, #150 ) ;
#79 = CIRCLE ( 'NONE', #83, 12.69999999999999900 ) ;
#80 = DIRECTION ( 'NONE',  ( 1.000000000000000000, 0.0000000000000000000, 0.0000000000000000000 ) ) ;
#81 = DIRECTION ( 'NONE',  ( 0.0000000000000000000, -0.0000000000000000000, 1.000000000000000000 ) ) ;
#82 = FACE_OUTER_BOUND ( 'NONE', #143, .T. ) ;
#83 = AXIS2_PLACEMENT_3D ( 'NONE', #154, #153, #152 ) ;
#84 = CARTESIAN_POINT ( 'NONE',  ( 0.0000000000000000000, 0.0000000000000000000, 1.895000000000000000 ) ) ;
#85 = AXIS2_PLACEMENT_3D ( 'NONE', #94, #90, #119 ) ;
#86 = DIRECTION ( 'NONE',  ( 0.7071067811865345800, 8.659560562354775100E-017, -0.7071067811865604500 ) ) ;
#87 = DIRECTION ( 'NONE',  ( 1.000000000000000000, 0.0000000000000000000, 0.0000000000000000000 ) ) ;
#88 = AXIS2_PLACEMENT_3D ( 'NONE', #93, #39, #87 ) ;
#89 = CIRCLE ( 'NONE', #85, 12.55857864376269000 ) ;
#90 = DIRECTION ( 'NONE',  ( -0.0000000000000000000, -0.0000000000000000000, 1.000000000000000000 ) ) ;
#91 = DIRECTION ( 'NONE',  ( 1.000000000000000000, 0.0000000000000000000, 0.0000000000000000000 ) ) ;
#92 = DIRECTION ( 'NONE',  ( -0.0000000000000000000, -0.0000000000000000000, 1.000000000000000000 ) ) ;
#93 = CARTESIAN_POINT ( 'NONE',  ( 0.0000000000000000000, 0.0000000000000000000, 0.1453995828268953000 ) ) ;
#94 = CARTESIAN_POINT ( 'NONE',  ( 0.0000000000000000000, 0.0000000000000000000, -1.895000000000000900 ) ) ;
#95 = CARTESIAN_POINT ( 'NONE',  ( 12.55857864376269200, 0.0000000000000000000, 0.1453995828268987700 ) ) ;
#96 = AXIS2_PLACEMENT_3D ( 'NONE', #120, #81, #80 ) ;
#97 = AXIS2_PLACEMENT_3D ( 'NONE', #36, #44, #37 ) ;
#98 = FACE_OUTER_BOUND ( 'NONE', #146, .T. ) ;
#99 = CARTESIAN_POINT ( 'NONE',  ( 0.0000000000000000000, 0.0000000000000000000, -1.895000000000000900 ) ) ;
#100 = CARTESIAN_POINT ( 'NONE',  ( -12.69999999999999900, 1.555301434917138400E-015, 0.003978226589582134500 ) ) ;
#101 = AXIS2_PLACEMENT_3D ( 'NONE', #42, #50, #40 ) ;
#102 = DIRECTION ( 'NONE',  ( 1.000000000000000000, 0.0000000000000000000, 0.0000000000000000000 ) ) ;
#103 = DIRECTION ( 'NONE',  ( -0.0000000000000000000, -0.0000000000000000000, 1.000000000000000000 ) ) ;
#104 = CARTESIAN_POINT ( 'NONE',  ( 0.0000000000000000000, 0.0000000000000000000, -1.753578643762687700 ) ) ;
#105 = AXIS2_PLACEMENT_3D ( 'NONE', #104, #103, #102 ) ;
#106 = CIRCLE ( 'NONE', #105, 12.69999999999999900 ) ;
#107 = TOROIDAL_SURFACE ( 'NONE', #49, -0.008728229770511158900, 46.00999999999999100 ) ;
#108 = CIRCLE ( 'NONE', #47, 46.00999999999998400 ) ;
#109 = CIRCLE ( 'NONE', #97, 12.55857864376269000 ) ;
#110 = FACE_OUTER_BOUND ( 'NONE', #185, .T. ) ;
#111 = CARTESIAN_POINT ( 'NONE',  ( -12.69999999999999900, 1.555301434917138400E-015, -1.753578643762687700 ) ) ;
#112 = CARTESIAN_POINT ( 'NONE',  ( -12.55857864376269000, 1.546641874354783400E-015, -1.895000000000000900 ) ) ;
#113 = CONICAL_SURFACE ( 'NONE', #57, 12.69999999999999900, 0.7853981633974300700 ) ;
#114 = DIRECTION ( 'NONE',  ( 1.000000000000000000, 0.0000000000000000000, 0.0000000000000000000 ) ) ;
#115 = DIRECTION ( 'NONE',  ( -0.0000000000000000000, -0.0000000000000000000, 1.000000000000000000 ) ) ;
#116 = AXIS2_PLACEMENT_3D ( 'NONE', #122, #115, #114 ) ;
#117 = CIRCLE ( 'NONE', #116, 12.55857864376269200 ) ;
#118 = LINE ( 'NONE', #77, #157 ) ;
#119 = DIRECTION ( 'NONE',  ( 1.000000000000000000, 0.0000000000000000000, 0.0000000000000000000 ) ) ;
#120 = CARTESIAN_POINT ( 'NONE',  ( 0.0000000000000000000, 0.0000000000000000000, -1.895000000000000000 ) ) ;
#121 = PLANE ( 'NONE',  #96 ) ;
#122 = CARTESIAN_POINT ( 'NONE',  ( 0.0000000000000000000, 0.0000000000000000000, 0.1453995828268953000 ) ) ;
#123 = LINE ( 'NONE', #76, #75 ) ;
#124 = FACE_OUTER_BOUND ( 'NONE', #147, .T. ) ;
#125 = DIRECTION ( 'NONE',  ( 0.7071067811865388000, 0.0000000000000000000, 0.7071067811865561200 ) ) ;
#126 = VECTOR ( 'NONE', #125, 1000.000000000000100 ) ;
#127 = CARTESIAN_POINT ( 'NONE',  ( 12.55857864376269000, 0.0000000000000000000, -1.895000000000000900 ) ) ;
#128 = DIRECTION ( 'NONE',  ( -1.000000000000000000, 1.224646799147353500E-016, 0.0000000000000000000 ) ) ;
#129 = CARTESIAN_POINT ( 'NONE',  ( 0.0000000000000000000, 0.0000000000000000000, 0.003978226589582134500 ) ) ;
#130 = DIRECTION ( 'NONE',  ( -0.7071067811865388000, 8.659560562354826900E-017, 0.7071067811865561200 ) ) ;
#131 = VECTOR ( 'NONE', #130, 1000.000000000000100 ) ;
#132 = CARTESIAN_POINT ( 'NONE',  ( 0.008728229770511158900, -1.068899865067912800E-018, -44.11499917211480000 ) ) ;
#133 = CIRCLE ( 'NONE', #142, 46.00999999999998400 ) ;
#134 = DIRECTION ( 'NONE',  ( 1.000000000000000000, 0.0000000000000000000, 0.0000000000000000000 ) ) ;
#135 = AXIS2_PLACEMENT_3D ( 'NONE', #140, #179, #134 ) ;
#136 = CARTESIAN_POINT ( 'NONE',  ( -12.55857864376269000, 1.537982313792428700E-015, -1.895000000000000900 ) ) ;
#137 = CONICAL_SURFACE ( 'NONE', #135, 12.55857864376269000, 0.7853981633974360700 ) ;
#138 = CARTESIAN_POINT ( 'NONE',  ( 12.69999999999999900, 0.0000000000000000000, -1.753578643762687700 ) ) ;
#139 = DIRECTION ( 'NONE',  ( 1.000000000000000000, 0.0000000000000000000, 0.0000000000000000000 ) ) ;
#140 = CARTESIAN_POINT ( 'NONE',  ( 0.0000000000000000000, 0.0000000000000000000, -1.895000000000000900 ) ) ;
#141 = LINE ( 'NONE', #136, #131 ) ;
#142 = AXIS2_PLACEMENT_3D ( 'NONE', #132, #182, #128 ) ;
#143 = EDGE_LOOP ( 'NONE', ( #171, #188, #189, #192 ) ) ;
#144 = ADVANCED_FACE ( 'NONE', ( #124 ), #121, .F. ) ;
#145 = ORIENTED_EDGE ( 'NONE', *, *, #33, .T. ) ;
#146 = EDGE_LOOP ( 'NONE', ( #177, #178, #176, #175 ) ) ;
#147 = EDGE_LOOP ( 'NONE', ( #31, #30 ) ) ;
#148 = CYLINDRICAL_SURFACE ( 'NONE', #156, 12.69999999999999900 ) ;
#149 = DIRECTION ( 'NONE',  ( -0.7071067811865345800, 0.0000000000000000000, -0.7071067811865604500 ) ) ;
#150 = VECTOR ( 'NONE', #149, 1000.000000000000000 ) ;
#151 = CARTESIAN_POINT ( 'NONE',  ( -12.69999999999999900, 0.0000000000000000000, 0.003978226589582134500 ) ) ;
#152 = DIRECTION ( 'NONE',  ( 1.000000000000000000, 0.0000000000000000000, 0.0000000000000000000 ) ) ;
#153 = DIRECTION ( 'NONE',  ( -0.0000000000000000000, -0.0000000000000000000, 1.000000000000000000 ) ) ;
#154 = CARTESIAN_POINT ( 'NONE',  ( 0.0000000000000000000, 0.0000000000000000000, 0.003978226589582134500 ) ) ;
#155 = CARTESIAN_POINT ( 'NONE',  ( 0.0000000000000000000, 0.0000000000000000000, 35.72254576870004400 ) ) ;
#156 = AXIS2_PLACEMENT_3D ( 'NONE', #155, #72, #71 ) ;
#157 = VECTOR ( 'NONE', #86, 1000.000000000000000 ) ;
#158 = AXIS2_PLACEMENT_3D ( 'NONE', #194, #193, #139 ) ;
#159 = EDGE_LOOP ( 'NONE', ( #10, #68, #163, #70 ) ) ;
#160 = ORIENTED_EDGE ( 'NONE', *, *, #19, .T. ) ;
#161 = EDGE_CURVE ( 'NONE', #15, #21, #123, .T. ) ;
#162 = ORIENTED_EDGE ( 'NONE', *, *, #12, .T. ) ;
#163 = ORIENTED_EDGE ( 'NONE', *, *, #19, .F. ) ;
#164 = ORIENTED_EDGE ( 'NONE', *, *, #161, .T. ) ;
#165 = EDGE_LOOP ( 'NONE', ( #24, #162, #26 ) ) ;
#166 = EDGE_CURVE ( 'NONE', #67, #23, #118, .T. ) ;
#167 = VERTEX_POINT ( 'NONE', #73 ) ;
#168 = EDGE_CURVE ( 'NONE', #23, #21, #79, .T. ) ;
#169 = ORIENTED_EDGE ( 'NONE', *, *, #168, .T. ) ;
#170 = EDGE_CURVE ( 'NONE', #7, #21, #78, .T. ) ;
#171 = ORIENTED_EDGE ( 'NONE', *, *, #161, .F. ) ;
#172 = ADVANCED_FACE ( 'NONE', ( #82 ), #148, .T. ) ;
#173 = ORIENTED_EDGE ( 'NONE', *, *, #33, .F. ) ;
#174 = EDGE_CURVE ( 'NONE', #15, #14, #5, .T. ) ;
#175 = ORIENTED_EDGE ( 'NONE', *, *, #174, .F. ) ;
#176 = ORIENTED_EDGE ( 'NONE', *, *, #61, .T. ) ;
#177 = ORIENTED_EDGE ( 'NONE', *, *, #11, .F. ) ;
#178 = ORIENTED_EDGE ( 'NONE', *, *, #29, .T. ) ;
#179 = DIRECTION ( 'NONE',  ( -0.0000000000000000000, -0.0000000000000000000, 1.000000000000000000 ) ) ;
#180 = FACE_OUTER_BOUND ( 'NONE', #165, .T. ) ;
#181 = FACE_OUTER_BOUND ( 'NONE', #159, .T. ) ;
#182 = DIRECTION ( 'NONE',  ( 1.224646799147353200E-016, 1.000000000000000000, 0.0000000000000000000 ) ) ;
#183 = ORIENTED_EDGE ( 'NONE', *, *, #170, .T. ) ;
#184 = ORIENTED_EDGE ( 'NONE', *, *, #187, .T. ) ;
#185 = EDGE_LOOP ( 'NONE', ( #8, #22, #169, #17 ) ) ;
#186 = EDGE_CURVE ( 'NONE', #14, #23, #246, .T. ) ;
#187 = EDGE_CURVE ( 'NONE', #21, #23, #281, .T. ) ;
#188 = ORIENTED_EDGE ( 'NONE', *, *, #174, .T. ) ;
#189 = ORIENTED_EDGE ( 'NONE', *, *, #186, .T. ) ;
#190 = ADVANCED_FACE ( 'NONE', ( #247 ), #205, .T. ) ;
#191 = EDGE_LOOP ( 'NONE', ( #197, #173, #183, #184 ) ) ;
#192 = ORIENTED_EDGE ( 'NONE', *, *, #187, .F. ) ;
#193 = DIRECTION ( 'NONE',  ( -0.0000000000000000000, -0.0000000000000000000, 1.000000000000000000 ) ) ;
#194 = CARTESIAN_POINT ( 'NONE',  ( 0.0000000000000000000, 0.0000000000000000000, -44.11499917211480000 ) ) ;
#195 = CLOSED_SHELL ( 'NONE', ( #20, #28, #9, #6, #27, #144, #32, #172, #190 ) ) ;
#196 = MANIFOLD_SOLID_BREP ( '24981-001-1-solid1', #195 ) ;
#197 = ORIENTED_EDGE ( 'NONE', *, *, #166, .F. ) ;
#198 = TOROIDAL_SURFACE ( 'NONE', #158, -0.008728229770511158900, 46.00999999999999100 ) ;
#199 = ORIENTED_EDGE ( 'NONE', *, *, #12, .F. ) ;
#200 = ORGANIZATION ( 'UNSPECIFIED', 'UNSPECIFIED', '' ) ;
#201 = PERSON ( 'UNSPECIFIED', 'UNSPECIFIED', 'UNSPECIFIED', ('UNSPECIFIED'), ('UNSPECIFIED'), ('UNSPECIFIED') ) ;
#202 = PRODUCT ( '24981-E0W', '24981-E0W', '', ( #203 ) ) ;
#203 = MECHANICAL_CONTEXT ( 'NONE', #257, 'mechanical' ) ;
#204 = APPLICATION_PROTOCOL_DEFINITION ( 'international standard', 'config_control_design', 1994, #257 ) ;
#205 = CONICAL_SURFACE ( 'NONE', #249, 12.69999999999999900, 0.7853981633974300700 ) ;
#206 = CALENDAR_DATE ( 2012, 28, 9 ) ;
#207 = LOCAL_TIME ( 12, 14, 13.00000000000000000, #208 ) ;
#208 = COORDINATED_UNIVERSAL_TIME_OFFSET ( 5, 0, .BEHIND. ) ;
#209 = APPROVAL_PERSON_ORGANIZATION ( #213, #211, #210 ) ;
#210 = APPROVAL_ROLE ( '' ) ;
#211 = APPROVAL ( #212, 'UNSPECIFIED' ) ;
#212 = APPROVAL_STATUS ( 'not_yet_approved' ) ;
#213 = PERSON_AND_ORGANIZATION ( #201, #200 ) ;
#214 = PRODUCT_DEFINITION_FORMATION_WITH_SPECIFIED_SOURCE ( 'ANY', '', #202, .NOT_KNOWN. ) ;
#215 = CC_DESIGN_DATE_AND_TIME_ASSIGNMENT ( #217, #216, ( #235 ) ) ;
#216 = DATE_TIME_ROLE ( 'creation_date' ) ;
#217 = DATE_AND_TIME ( #218, #219 ) ;
#218 = CALENDAR_DATE ( 2012, 28, 9 ) ;
#219 = LOCAL_TIME ( 12, 14, 13.00000000000000000, #220 ) ;
#220 = COORDINATED_UNIVERSAL_TIME_OFFSET ( 5, 0, .BEHIND. ) ;
#221 = CC_DESIGN_PERSON_AND_ORGANIZATION_ASSIGNMENT ( #223, #222, ( #235 ) ) ;
#222 = PERSON_AND_ORGANIZATION_ROLE ( 'creator' ) ;
#223 = PERSON_AND_ORGANIZATION ( #201, #200 ) ;
#224 = CC_DESIGN_APPROVAL ( #232, ( #235 ) ) ;
#225 = APPROVAL_DATE_TIME ( #226, #232 ) ;
#226 = DATE_AND_TIME ( #227, #228 ) ;
#227 = CALENDAR_DATE ( 2012, 28, 9 ) ;
#228 = LOCAL_TIME ( 12, 14, 13.00000000000000000, #229 ) ;
#229 = COORDINATED_UNIVERSAL_TIME_OFFSET ( 5, 0, .BEHIND. ) ;
#230 = APPROVAL_PERSON_ORGANIZATION ( #234, #232, #231 ) ;
#231 = APPROVAL_ROLE ( '' ) ;
#232 = APPROVAL ( #233, 'UNSPECIFIED' ) ;
#233 = APPROVAL_STATUS ( 'not_yet_approved' ) ;
#234 = PERSON_AND_ORGANIZATION ( #201, #200 ) ;
#235 = PRODUCT_DEFINITION ( 'UNKNOWN', '', #214, #236 ) ;
#236 = DESIGN_CONTEXT ( 'detailed design', #238, 'design' ) ;
#237 = APPLICATION_PROTOCOL_DEFINITION ( 'international standard', 'config_control_design', 1994, #238 ) ;
#238 = APPLICATION_CONTEXT ( 'configuration controlled 3d designs of mechanical parts and assemblies' ) ;
#239 = CC_DESIGN_PERSON_AND_ORGANIZATION_ASSIGNMENT ( #241, #240, ( #202 ) ) ;
#240 = PERSON_AND_ORGANIZATION_ROLE ( 'design_owner' ) ;
#241 = PERSON_AND_ORGANIZATION ( #201, #200 ) ;
#242 =( GEOMETRIC_REPRESENTATION_CONTEXT ( 3 ) GLOBAL_UNCERTAINTY_ASSIGNED_CONTEXT ( ( #245 ) ) GLOBAL_UNIT_ASSIGNED_CONTEXT ( ( #284, #285, #279 ) ) REPRESENTATION_CONTEXT ( 'NONE', 'WORKASPACE' ) );
#243 = DIRECTION ( 'NONE',  ( 1.000000000000000000, 0.0000000000000000000, 0.0000000000000000000 ) ) ;
#244 = AXIS2_PLACEMENT_3D ( 'NONE', #254, #260, #243 ) ;
#245 = UNCERTAINTY_MEASURE_WITH_UNIT (LENGTH_MEASURE( 1.000000000000000100E-005 ), #284, 'distance_accuracy_value', 'NONE');
#246 = LINE ( 'NONE', #251, #282 ) ;
#247 = FACE_OUTER_BOUND ( 'NONE', #191, .T. ) ;
#248 = DIRECTION ( 'NONE',  ( 1.000000000000000000, 0.0000000000000000000, 0.0000000000000000000 ) ) ;
#249 = AXIS2_PLACEMENT_3D ( 'NONE', #250, #252, #256 ) ;
#250 = CARTESIAN_POINT ( 'NONE',  ( 0.0000000000000000000, 0.0000000000000000000, 0.003978226589582134500 ) ) ;
#251 = CARTESIAN_POINT ( 'NONE',  ( 12.69999999999999900, 0.0000000000000000000, 35.72254576870004400 ) ) ;
#252 = DIRECTION ( 'NONE',  ( 0.0000000000000000000, 0.0000000000000000000, -1.000000000000000000 ) ) ;
#253 = DIRECTION ( 'NONE',  ( -0.0000000000000000000, -0.0000000000000000000, 1.000000000000000000 ) ) ;
#254 = CARTESIAN_POINT ( 'NONE',  ( 0.0000000000000000000, 0.0000000000000000000, 0.0000000000000000000 ) ) ;
#255 = CARTESIAN_POINT ( 'NONE',  ( 0.0000000000000000000, 0.0000000000000000000, 0.003978226589582134500 ) ) ;
#256 = DIRECTION ( 'NONE',  ( -1.000000000000000000, 0.0000000000000000000, 0.0000000000000000000 ) ) ;
#257 = APPLICATION_CONTEXT ( 'configuration controlled 3d designs of mechanical parts and assemblies' ) ;
#258 = SHAPE_DEFINITION_REPRESENTATION ( #261, #259 ) ;
#259 = ADVANCED_BREP_SHAPE_REPRESENTATION ( '24981-E0W', ( #196, #244 ), #242 ) ;
#260 = DIRECTION ( 'NONE',  ( 0.0000000000000000000, 0.0000000000000000000, 1.000000000000000000 ) ) ;
#261 = PRODUCT_DEFINITION_SHAPE ( 'NONE', 'NONE',  #235 ) ;
#262 = PRODUCT_RELATED_PRODUCT_CATEGORY ( 'detail', '', ( #202 ) ) ;
#263 = CC_DESIGN_SECURITY_CLASSIFICATION ( #291, ( #214 ) ) ;
#264 = CC_DESIGN_APPROVAL ( #272, ( #291 ) ) ;
#265 = APPROVAL_DATE_TIME ( #266, #272 ) ;
#266 = DATE_AND_TIME ( #267, #268 ) ;
#267 = CALENDAR_DATE ( 2012, 28, 9 ) ;
#268 = LOCAL_TIME ( 12, 14, 13.00000000000000000, #269 ) ;
#269 = COORDINATED_UNIVERSAL_TIME_OFFSET ( 5, 0, .BEHIND. ) ;
#270 = APPROVAL_PERSON_ORGANIZATION ( #274, #272, #271 ) ;
#271 = APPROVAL_ROLE ( '' ) ;
#272 = APPROVAL ( #273, 'UNSPECIFIED' ) ;
#273 = APPROVAL_STATUS ( 'not_yet_approved' ) ;
#274 = PERSON_AND_ORGANIZATION ( #201, #200 ) ;
#275 = CC_DESIGN_DATE_AND_TIME_ASSIGNMENT ( #277, #276, ( #291 ) ) ;
#276 = DATE_TIME_ROLE ( 'classification_date' ) ;
#277 = DATE_AND_TIME ( #286, #278 ) ;
#278 = LOCAL_TIME ( 12, 14, 13.00000000000000000, #287 ) ;
#279 =( NAMED_UNIT ( * ) SI_UNIT ( $, .STERADIAN. ) SOLID_ANGLE_UNIT ( ) );
#280 = DIRECTION ( 'NONE',  ( -0.0000000000000000000, -0.0000000000000000000, 1.000000000000000000 ) ) ;
#281 = CIRCLE ( 'NONE', #283, 12.69999999999999900 ) ;
#282 = VECTOR ( 'NONE', #253, 1000.000000000000000 ) ;
#283 = AXIS2_PLACEMENT_3D ( 'NONE', #255, #280, #248 ) ;
#284 =( LENGTH_UNIT ( ) NAMED_UNIT ( * ) SI_UNIT ( .MILLI., .METRE. ) );
#285 =( NAMED_UNIT ( * ) PLANE_ANGLE_UNIT ( ) SI_UNIT ( $, .RADIAN. ) );
#286 = CALENDAR_DATE ( 2012, 28, 9 ) ;
#287 = COORDINATED_UNIVERSAL_TIME_OFFSET ( 5, 0, .BEHIND. ) ;
#288 = CC_DESIGN_PERSON_AND_ORGANIZATION_ASSIGNMENT ( #290, #289, ( #291 ) ) ;
#289 = PERSON_AND_ORGANIZATION_ROLE ( 'classification_officer' ) ;
#290 = PERSON_AND_ORGANIZATION ( #201, #200 ) ;
#291 = SECURITY_CLASSIFICATION ( '', '', #292 ) ;
#292 = SECURITY_CLASSIFICATION_LEVEL ( 'unclassified' ) ;
#293 = CC_DESIGN_PERSON_AND_ORGANIZATION_ASSIGNMENT ( #295, #294, ( #214 ) ) ;
#294 = PERSON_AND_ORGANIZATION_ROLE ( 'design_supplier' ) ;
#295 = PERSON_AND_ORGANIZATION ( #201, #200 ) ;
#296 = CC_DESIGN_PERSON_AND_ORGANIZATION_ASSIGNMENT ( #298, #297, ( #214 ) ) ;
#297 = PERSON_AND_ORGANIZATION_ROLE ( 'creator' ) ;
#298 = PERSON_AND_ORGANIZATION ( #201, #200 ) ;
#299 = CC_DESIGN_APPROVAL ( #211, ( #214 ) ) ;
#300 = APPROVAL_DATE_TIME ( #301, #211 ) ;
#301 = DATE_AND_TIME ( #206, #207 ) ;
ENDSEC;
END-ISO-10303-21;
