ISO-10303-21;
HEADER;
FILE_DESCRIPTION (( 'STEP AP214' ),
    '1' );
FILE_NAME ('4525-E0W.STEP',
    '2009-12-21T17:07:38',
    ( ' ' ),
    ( ' ' ),
    'SwSTEP 2.0',
    'SolidWorks 2009',
    '' );
FILE_SCHEMA (( 'AUTOMOTIVE_DESIGN' ));
ENDSEC;

DATA;
#1 = APPLICATION_CONTEXT ( 'automotive_design' ) ;
#2 = UNCERTAINTY_MEASURE_WITH_UNIT (LENGTH_MEASURE( 1.000000000000000100E-005 ), #68, 'distance_accuracy_value', 'NONE');
#3 =( NAMED_UNIT ( * ) SI_UNIT ( $, .STERADIAN. ) SOLID_ANGLE_UNIT ( ) );
#4 = EDGE_CURVE ( 'NONE', #94, #5, #88, .T. ) ;
#5 = VERTEX_POINT ( 'NONE', #83 ) ;
#6 = ORIENTED_EDGE ( 'NONE', *, *, #90, .T. ) ;
#7 = CARTESIAN_POINT ( 'NONE',  ( 37.50000000000000000, 0.0000000000000000000, -6.606274810554420900 ) ) ;
#8 = DIRECTION ( 'NONE',  ( 1.000000000000000000, 0.0000000000000000000, 0.0000000000000000000 ) ) ;
#9 = DIRECTION ( 'NONE',  ( -0.0000000000000000000, -0.0000000000000000000, 1.000000000000000000 ) ) ;
#10 = CARTESIAN_POINT ( 'NONE',  ( 0.0000000000000000000, 0.0000000000000000000, -6.606274810554420900 ) ) ;
#11 = AXIS2_PLACEMENT_3D ( 'NONE', #10, #9, #8 ) ;
#12 = MECHANICAL_DESIGN_GEOMETRIC_PRESENTATION_REPRESENTATION (  '', ( #14 ), #33 ) ;
#13 = PRESENTATION_LAYER_ASSIGNMENT (  '', '', ( #14 ) ) ;
#14 = STYLED_ITEM ( 'NONE', ( #15 ), #31 ) ;
#15 = PRESENTATION_STYLE_ASSIGNMENT (( #16 ) ) ;
#16 = SURFACE_STYLE_USAGE ( .BOTH. , #17 ) ;
#17 = SURFACE_SIDE_STYLE ('',( #18 ) ) ;
#18 = SURFACE_STYLE_FILL_AREA ( #19 ) ;
#19 = FILL_AREA_STYLE ('',( #113 ) ) ;
#20 = COLOUR_RGB ( '',0.9568627450980391500, 0.9490196078431372100, 0.9607843137254902200 ) ;
#21 = FACE_OUTER_BOUND ( 'NONE', #51, .T. ) ;
#22 = EDGE_CURVE ( 'NONE', #5, #23, #82, .T. ) ;
#23 = VERTEX_POINT ( 'NONE', #7 ) ;
#24 = ORIENTED_EDGE ( 'NONE', *, *, #25, .F. ) ;
#25 = EDGE_CURVE ( 'NONE', #103, #23, #117, .T. ) ;
#26 = EDGE_CURVE ( 'NONE', #46, #94, #112, .T. ) ;
#27 = CLOSED_SHELL ( 'NONE', ( #39, #118, #105, #31, #95 ) ) ;
#28 = ORIENTED_EDGE ( 'NONE', *, *, #102, .F. ) ;
#29 = ORIENTED_EDGE ( 'NONE', *, *, #4, .F. ) ;
#30 = ORIENTED_EDGE ( 'NONE', *, *, #22, .F. ) ;
#31 = ADVANCED_FACE ( 'NONE', ( #21 ), #32, .T. ) ;
#32 = CYLINDRICAL_SURFACE ( 'NONE', #63, 37.50000000000000000 ) ;
#33 =( GEOMETRIC_REPRESENTATION_CONTEXT ( 3 ) GLOBAL_UNCERTAINTY_ASSIGNED_CONTEXT ( ( #34 ) ) GLOBAL_UNIT_ASSIGNED_CONTEXT ( ( #37, #36, #35 ) ) REPRESENTATION_CONTEXT ( 'NONE', 'WORKASPACE' ) );
#34 = UNCERTAINTY_MEASURE_WITH_UNIT (LENGTH_MEASURE( 1.000000000000000100E-005 ), #37, 'distance_accuracy_value', 'NONE');
#35 =( NAMED_UNIT ( * ) SI_UNIT ( $, .STERADIAN. ) SOLID_ANGLE_UNIT ( ) );
#36 =( NAMED_UNIT ( * ) PLANE_ANGLE_UNIT ( ) SI_UNIT ( $, .RADIAN. ) );
#37 =( LENGTH_UNIT ( ) NAMED_UNIT ( * ) SI_UNIT ( .MILLI., .METRE. ) );
#38 = MANIFOLD_SOLID_BREP ( 'NONE', #27 ) ;
#39 = ADVANCED_FACE ( 'NONE', ( #79 ), #215, .T. ) ;
#40 = ORIENTED_EDGE ( 'NONE', *, *, #102, .T. ) ;
#41 = UNCERTAINTY_MEASURE_WITH_UNIT (LENGTH_MEASURE( 1.000000000000000100E-005 ), #44, 'distance_accuracy_value', 'NONE');
#42 =( NAMED_UNIT ( * ) SI_UNIT ( $, .STERADIAN. ) SOLID_ANGLE_UNIT ( ) );
#43 =( NAMED_UNIT ( * ) PLANE_ANGLE_UNIT ( ) SI_UNIT ( $, .RADIAN. ) );
#44 =( LENGTH_UNIT ( ) NAMED_UNIT ( * ) SI_UNIT ( .MILLI., .METRE. ) );
#45 = MECHANICAL_DESIGN_GEOMETRIC_PRESENTATION_REPRESENTATION (  '', ( #55 ), #80 ) ;
#46 = VERTEX_POINT ( 'NONE', #205 ) ;
#47 = ORIENTED_EDGE ( 'NONE', *, *, #26, .T. ) ;
#48 = ORIENTED_EDGE ( 'NONE', *, *, #26, .F. ) ;
#49 = ORIENTED_EDGE ( 'NONE', *, *, #104, .T. ) ;
#50 = ORIENTED_EDGE ( 'NONE', *, *, #93, .T. ) ;
#51 = EDGE_LOOP ( 'NONE', ( #48, #52, #97, #30, #29 ) ) ;
#52 = ORIENTED_EDGE ( 'NONE', *, *, #53, .T. ) ;
#53 = EDGE_CURVE ( 'NONE', #46, #103, #181, .T. ) ;
#54 = PRESENTATION_LAYER_ASSIGNMENT (  '', '', ( #55 ) ) ;
#55 = STYLED_ITEM ( 'NONE', ( #56 ), #38 ) ;
#56 = PRESENTATION_STYLE_ASSIGNMENT (( #57 ) ) ;
#57 = SURFACE_STYLE_USAGE ( .BOTH. , #58 ) ;
#58 = SURFACE_SIDE_STYLE ('',( #59 ) ) ;
#59 = SURFACE_STYLE_FILL_AREA ( #64 ) ;
#60 = DIRECTION ( 'NONE',  ( 1.000000000000000000, 0.0000000000000000000, 0.0000000000000000000 ) ) ;
#61 = DIRECTION ( 'NONE',  ( -0.0000000000000000000, -0.0000000000000000000, 1.000000000000000000 ) ) ;
#62 = CARTESIAN_POINT ( 'NONE',  ( 0.0000000000000000000, 0.0000000000000000000, 4.308132045400366600 ) ) ;
#63 = AXIS2_PLACEMENT_3D ( 'NONE', #62, #61, #60 ) ;
#64 = FILL_AREA_STYLE ('',( #65 ) ) ;
#65 = FILL_AREA_STYLE_COLOUR ( '', #66 ) ;
#66 = COLOUR_RGB ( '',0.7960784313725489700, 0.8235294117647058400, 0.9372549019607843100 ) ;
#67 =( NAMED_UNIT ( * ) PLANE_ANGLE_UNIT ( ) SI_UNIT ( $, .RADIAN. ) );
#68 =( LENGTH_UNIT ( ) NAMED_UNIT ( * ) SI_UNIT ( .MILLI., .METRE. ) );
#69 = MECHANICAL_DESIGN_GEOMETRIC_PRESENTATION_REPRESENTATION (  '', ( #71 ), #252 ) ;
#70 = PRESENTATION_LAYER_ASSIGNMENT (  '', '', ( #71 ) ) ;
#71 = STYLED_ITEM ( 'NONE', ( #72 ), #39 ) ;
#72 = PRESENTATION_STYLE_ASSIGNMENT (( #73 ) ) ;
#73 = SURFACE_STYLE_USAGE ( .BOTH. , #74 ) ;
#74 = SURFACE_SIDE_STYLE ('',( #75 ) ) ;
#75 = SURFACE_STYLE_FILL_AREA ( #76 ) ;
#76 = FILL_AREA_STYLE ('',( #77 ) ) ;
#77 = FILL_AREA_STYLE_COLOUR ( '', #78 ) ;
#78 = COLOUR_RGB ( '',0.9568627450980391500, 0.9490196078431372100, 0.9607843137254902200 ) ;
#79 = FACE_OUTER_BOUND ( 'NONE', #89, .T. ) ;
#80 =( GEOMETRIC_REPRESENTATION_CONTEXT ( 3 ) GLOBAL_UNCERTAINTY_ASSIGNED_CONTEXT ( ( #41 ) ) GLOBAL_UNIT_ASSIGNED_CONTEXT ( ( #44, #43, #42 ) ) REPRESENTATION_CONTEXT ( 'NONE', 'WORKASPACE' ) );
#81 = EDGE_CURVE ( 'NONE', #100, #94, #123, .T. ) ;
#82 = CIRCLE ( 'NONE', #11, 37.50000000000000000 ) ;
#83 = CARTESIAN_POINT ( 'NONE',  ( -4.592273826833913100E-015, -37.49999999999999300, -6.606274810554422700 ) ) ;
#84 = DIRECTION ( 'NONE',  ( 1.000000000000000000, 0.0000000000000000000, 0.0000000000000000000 ) ) ;
#85 = DIRECTION ( 'NONE',  ( -0.0000000000000000000, -0.0000000000000000000, 1.000000000000000000 ) ) ;
#86 = CARTESIAN_POINT ( 'NONE',  ( 0.0000000000000000000, 0.0000000000000000000, -6.606274810554420900 ) ) ;
#87 = AXIS2_PLACEMENT_3D ( 'NONE', #86, #85, #84 ) ;
#88 = CIRCLE ( 'NONE', #87, 37.50000000000000000 ) ;
#89 = EDGE_LOOP ( 'NONE', ( #40, #47, #101, #99, #24 ) ) ;
#90 = EDGE_CURVE ( 'NONE', #5, #91, #219, .T. ) ;
#91 = VERTEX_POINT ( 'NONE', #188 ) ;
#92 = ORIENTED_EDGE ( 'NONE', *, *, #93, .F. ) ;
#93 = EDGE_CURVE ( 'NONE', #100, #91, #140, .T. ) ;
#94 = VERTEX_POINT ( 'NONE', #195 ) ;
#95 = ADVANCED_FACE ( 'NONE', ( #194 ), #164, .F. ) ;
#96 = EDGE_LOOP ( 'NONE', ( #28, #98 ) ) ;
#97 = ORIENTED_EDGE ( 'NONE', *, *, #25, .T. ) ;
#98 = ORIENTED_EDGE ( 'NONE', *, *, #53, .F. ) ;
#99 = ORIENTED_EDGE ( 'NONE', *, *, #104, .F. ) ;
#100 = VERTEX_POINT ( 'NONE', #178 ) ;
#101 = ORIENTED_EDGE ( 'NONE', *, *, #81, .F. ) ;
#102 = EDGE_CURVE ( 'NONE', #103, #46, #176, .T. ) ;
#103 = VERTEX_POINT ( 'NONE', #177 ) ;
#104 = EDGE_CURVE ( 'NONE', #23, #100, #209, .T. ) ;
#105 = ADVANCED_FACE ( 'NONE', ( #232 ), #220, .T. ) ;
#106 = EDGE_LOOP ( 'NONE', ( #107, #108, #49, #50 ) ) ;
#107 = ORIENTED_EDGE ( 'NONE', *, *, #90, .F. ) ;
#108 = ORIENTED_EDGE ( 'NONE', *, *, #22, .T. ) ;
#109 = DIRECTION ( 'NONE',  ( -0.0000000000000000000, -0.0000000000000000000, 1.000000000000000000 ) ) ;
#110 = VECTOR ( 'NONE', #109, 1000.000000000000000 ) ;
#111 = CARTESIAN_POINT ( 'NONE',  ( -37.50000000000000000, 4.592273826833913900E-015, 4.308132045400366600 ) ) ;
#112 = LINE ( 'NONE', #111, #110 ) ;
#113 = FILL_AREA_STYLE_COLOUR ( '', #20 ) ;
#114 = DIRECTION ( 'NONE',  ( -0.0000000000000000000, -0.0000000000000000000, 1.000000000000000000 ) ) ;
#115 = VECTOR ( 'NONE', #114, 1000.000000000000000 ) ;
#116 = CARTESIAN_POINT ( 'NONE',  ( 37.50000000000000000, 0.0000000000000000000, 4.308132045400366600 ) ) ;
#117 = LINE ( 'NONE', #116, #115 ) ;
#118 = ADVANCED_FACE ( 'NONE', ( #156 ), #137, .T. ) ;
#119 = EDGE_LOOP ( 'NONE', ( #120, #121, #6, #92 ) ) ;
#120 = ORIENTED_EDGE ( 'NONE', *, *, #81, .T. ) ;
#121 = ORIENTED_EDGE ( 'NONE', *, *, #4, .T. ) ;
#122 = CARTESIAN_POINT ( 'NONE',  ( 0.0000000000000000000, 0.0000000000000000000, 4.308132045400366600 ) ) ;
#123 = CIRCLE ( 'NONE', #141, 37.50000000000000000 ) ;
#124 =( GEOMETRIC_REPRESENTATION_CONTEXT ( 3 ) GLOBAL_UNCERTAINTY_ASSIGNED_CONTEXT ( ( #125 ) ) GLOBAL_UNIT_ASSIGNED_CONTEXT ( ( #142, #127, #126 ) ) REPRESENTATION_CONTEXT ( 'NONE', 'WORKASPACE' ) );
#125 = UNCERTAINTY_MEASURE_WITH_UNIT (LENGTH_MEASURE( 1.000000000000000100E-005 ), #142, 'distance_accuracy_value', 'NONE');
#126 =( NAMED_UNIT ( * ) SI_UNIT ( $, .STERADIAN. ) SOLID_ANGLE_UNIT ( ) );
#127 =( NAMED_UNIT ( * ) PLANE_ANGLE_UNIT ( ) SI_UNIT ( $, .RADIAN. ) );
#128 = DIRECTION ( 'NONE',  ( 0.0000000000000000000, 0.0000000000000000000, -1.000000000000000000 ) ) ;
#129 = DIRECTION ( 'NONE',  ( 1.000000000000000000, 0.0000000000000000000, 0.0000000000000000000 ) ) ;
#130 = AXIS2_PLACEMENT_3D ( 'NONE', #187, #129, #128 ) ;
#131 =( LENGTH_UNIT ( ) NAMED_UNIT ( * ) SI_UNIT ( .MILLI., .METRE. ) );
#132 = DIRECTION ( 'NONE',  ( 0.0000000000000000000, 1.000000000000000000, 0.0000000000000000000 ) ) ;
#133 = DIRECTION ( 'NONE',  ( -1.000000000000000000, 0.0000000000000000000, 0.0000000000000000000 ) ) ;
#134 = AXIS2_PLACEMENT_3D ( 'NONE', #136, #133, #132 ) ;
#135 = CARTESIAN_POINT ( 'NONE',  ( 0.0000000000000000000, 0.0000000000000000000, 0.0000000000000000000 ) ) ;
#136 = CARTESIAN_POINT ( 'NONE',  ( 0.0000000000000000000, 0.0000000000000000000, -41.90500000000000100 ) ) ;
#137 = SPHERICAL_SURFACE ( 'NONE', #134, 51.49999999999999300 ) ;
#138 = DIRECTION ( 'NONE',  ( -0.0000000000000000000, -0.0000000000000000000, 1.000000000000000000 ) ) ;
#139 = AXIS2_PLACEMENT_3D ( 'NONE', #122, #138, #216 ) ;
#140 = CIRCLE ( 'NONE', #130, 51.49999999999999300 ) ;
#141 = AXIS2_PLACEMENT_3D ( 'NONE', #196, #253, #217 ) ;
#142 =( LENGTH_UNIT ( ) NAMED_UNIT ( * ) SI_UNIT ( .MILLI., .METRE. ) );
#143 = MECHANICAL_DESIGN_GEOMETRIC_PRESENTATION_REPRESENTATION (  '', ( #145 ), #124 ) ;
#144 = PRESENTATION_LAYER_ASSIGNMENT (  '', '', ( #145 ) ) ;
#145 = STYLED_ITEM ( 'NONE', ( #146 ), #118 ) ;
#146 = PRESENTATION_STYLE_ASSIGNMENT (( #147 ) ) ;
#147 = SURFACE_STYLE_USAGE ( .BOTH. , #148 ) ;
#148 = SURFACE_SIDE_STYLE ('',( #149 ) ) ;
#149 = SURFACE_STYLE_FILL_AREA ( #150 ) ;
#150 = FILL_AREA_STYLE ('',( #157 ) ) ;
#151 = COLOUR_RGB ( '',0.9568627450980391500, 0.9490196078431372100, 0.9607843137254902200 ) ;
#152 = DIRECTION ( 'NONE',  ( 0.0000000000000000000, 1.000000000000000000, 0.0000000000000000000 ) ) ;
#153 = DIRECTION ( 'NONE',  ( -1.000000000000000000, 0.0000000000000000000, 0.0000000000000000000 ) ) ;
#154 = CARTESIAN_POINT ( 'NONE',  ( 0.0000000000000000000, 0.0000000000000000000, -41.90500000000000100 ) ) ;
#155 = AXIS2_PLACEMENT_3D ( 'NONE', #154, #153, #152 ) ;
#156 = FACE_OUTER_BOUND ( 'NONE', #119, .T. ) ;
#157 = FILL_AREA_STYLE_COLOUR ( '', #151 ) ;
#158 =( NAMED_UNIT ( * ) SI_UNIT ( $, .STERADIAN. ) SOLID_ANGLE_UNIT ( ) );
#159 = ADVANCED_BREP_SHAPE_REPRESENTATION ( '4525-E0W', ( #38, #236 ), #160 ) ;
#160 =( GEOMETRIC_REPRESENTATION_CONTEXT ( 3 ) GLOBAL_UNCERTAINTY_ASSIGNED_CONTEXT ( ( #161 ) ) GLOBAL_UNIT_ASSIGNED_CONTEXT ( ( #131, #163, #162 ) ) REPRESENTATION_CONTEXT ( 'NONE', 'WORKASPACE' ) );
#161 = UNCERTAINTY_MEASURE_WITH_UNIT (LENGTH_MEASURE( 1.000000000000000100E-005 ), #131, 'distance_accuracy_value', 'NONE');
#162 =( NAMED_UNIT ( * ) SI_UNIT ( $, .STERADIAN. ) SOLID_ANGLE_UNIT ( ) );
#163 =( NAMED_UNIT ( * ) PLANE_ANGLE_UNIT ( ) SI_UNIT ( $, .RADIAN. ) );
#164 = PLANE ( 'NONE',  #200 ) ;
#165 =( GEOMETRIC_REPRESENTATION_CONTEXT ( 3 ) GLOBAL_UNCERTAINTY_ASSIGNED_CONTEXT ( ( #198 ) ) GLOBAL_UNIT_ASSIGNED_CONTEXT ( ( #211, #169, #158 ) ) REPRESENTATION_CONTEXT ( 'NONE', 'WORKASPACE' ) );
#166 =( NAMED_UNIT ( * ) SI_UNIT ( $, .STERADIAN. ) SOLID_ANGLE_UNIT ( ) );
#167 =( NAMED_UNIT ( * ) PLANE_ANGLE_UNIT ( ) SI_UNIT ( $, .RADIAN. ) );
#168 =( LENGTH_UNIT ( ) NAMED_UNIT ( * ) SI_UNIT ( .MILLI., .METRE. ) );
#169 =( NAMED_UNIT ( * ) PLANE_ANGLE_UNIT ( ) SI_UNIT ( $, .RADIAN. ) );
#170 = CARTESIAN_POINT ( 'NONE',  ( 0.0000000000000000000, 0.0000000000000000000, -41.90500000000000100 ) ) ;
#171 = CARTESIAN_POINT ( 'NONE',  ( 0.0000000000000000000, 0.0000000000000000000, -9.595000000000000600 ) ) ;
#172 = DIRECTION ( 'NONE',  ( 1.000000000000000000, 0.0000000000000000000, 0.0000000000000000000 ) ) ;
#173 = DIRECTION ( 'NONE',  ( -0.0000000000000000000, -0.0000000000000000000, 1.000000000000000000 ) ) ;
#174 = CARTESIAN_POINT ( 'NONE',  ( 0.0000000000000000000, 0.0000000000000000000, -9.595000000000000600 ) ) ;
#175 = AXIS2_PLACEMENT_3D ( 'NONE', #174, #173, #172 ) ;
#176 = CIRCLE ( 'NONE', #175, 37.50000000000000000 ) ;
#177 = CARTESIAN_POINT ( 'NONE',  ( 37.50000000000000000, 0.0000000000000000000, -9.595000000000000600 ) ) ;
#178 = CARTESIAN_POINT ( 'NONE',  ( 0.0000000000000000000, 37.49999999999999300, -6.606274810554422700 ) ) ;
#179 = DIRECTION ( 'NONE',  ( 1.000000000000000000, 0.0000000000000000000, 0.0000000000000000000 ) ) ;
#180 = DIRECTION ( 'NONE',  ( 0.0000000000000000000, -0.0000000000000000000, 1.000000000000000000 ) ) ;
#181 = CIRCLE ( 'NONE', #254, 37.50000000000000000 ) ;
#182 = PRESENTATION_STYLE_ASSIGNMENT (( #183 ) ) ;
#183 = SURFACE_STYLE_USAGE ( .BOTH. , #184 ) ;
#184 = SURFACE_SIDE_STYLE ('',( #185 ) ) ;
#185 = SURFACE_STYLE_FILL_AREA ( #186 ) ;
#186 = FILL_AREA_STYLE ('',( #192 ) ) ;
#187 = CARTESIAN_POINT ( 'NONE',  ( 0.0000000000000000000, 0.0000000000000000000, -41.90500000000000100 ) ) ;
#188 = CARTESIAN_POINT ( 'NONE',  ( 0.0000000000000000000, 3.153361361092621000E-015, 9.594999999999991800 ) ) ;
#189 = DIRECTION ( 'NONE',  ( -1.224606353822377300E-016, -1.000000000000000000, 0.0000000000000000000 ) ) ;
#190 = DIRECTION ( 'NONE',  ( -1.000000000000000000, 1.224606353822377300E-016, 0.0000000000000000000 ) ) ;
#191 = DIRECTION ( 'NONE',  ( 1.000000000000000000, 0.0000000000000000000, 0.0000000000000000000 ) ) ;
#192 = FILL_AREA_STYLE_COLOUR ( '', #193 ) ;
#193 = COLOUR_RGB ( '',0.9568627450980391500, 0.9490196078431372100, 0.9607843137254902200 ) ;
#194 = FACE_OUTER_BOUND ( 'NONE', #96, .T. ) ;
#195 = CARTESIAN_POINT ( 'NONE',  ( -37.50000000000000000, 4.592273826833913900E-015, -6.606274810554420900 ) ) ;
#196 = CARTESIAN_POINT ( 'NONE',  ( 0.0000000000000000000, 0.0000000000000000000, -6.606274810554420900 ) ) ;
#197 = DIRECTION ( 'NONE',  ( -0.0000000000000000000, -0.0000000000000000000, 1.000000000000000000 ) ) ;
#198 = UNCERTAINTY_MEASURE_WITH_UNIT (LENGTH_MEASURE( 1.000000000000000100E-005 ), #211, 'distance_accuracy_value', 'NONE');
#199 = CARTESIAN_POINT ( 'NONE',  ( 0.0000000000000000000, 3.525145811345656000E-015, -9.595000000000000600 ) ) ;
#200 = AXIS2_PLACEMENT_3D ( 'NONE', #199, #180, #179 ) ;
#201 = PRODUCT ( '4525-E0W', '4525-E0W', '', ( #202 ) ) ;
#202 = PRODUCT_CONTEXT ( 'NONE', #204, 'mechanical' ) ;
#203 = APPLICATION_PROTOCOL_DEFINITION ( 'draft international standard', 'automotive_design', 1998, #204 ) ;
#204 = APPLICATION_CONTEXT ( 'automotive_design' ) ;
#205 = CARTESIAN_POINT ( 'NONE',  ( -37.50000000000000000, 4.592273826833913900E-015, -9.595000000000000600 ) ) ;
#206 = DIRECTION ( 'NONE',  ( -0.0000000000000000000, -0.0000000000000000000, 1.000000000000000000 ) ) ;
#207 = CARTESIAN_POINT ( 'NONE',  ( 0.0000000000000000000, 0.0000000000000000000, -6.606274810554420900 ) ) ;
#208 = AXIS2_PLACEMENT_3D ( 'NONE', #207, #206, #233 ) ;
#209 = CIRCLE ( 'NONE', #208, 37.50000000000000000 ) ;
#210 = FILL_AREA_STYLE_COLOUR ( '', #231 ) ;
#211 =( LENGTH_UNIT ( ) NAMED_UNIT ( * ) SI_UNIT ( .MILLI., .METRE. ) );
#212 = MECHANICAL_DESIGN_GEOMETRIC_PRESENTATION_REPRESENTATION (  '', ( #214 ), #165 ) ;
#213 = PRESENTATION_LAYER_ASSIGNMENT (  '', '', ( #214 ) ) ;
#214 = STYLED_ITEM ( 'NONE', ( #182 ), #95 ) ;
#215 = CYLINDRICAL_SURFACE ( 'NONE', #139, 37.50000000000000000 ) ;
#216 = DIRECTION ( 'NONE',  ( 1.000000000000000000, 0.0000000000000000000, 0.0000000000000000000 ) ) ;
#217 = DIRECTION ( 'NONE',  ( 1.000000000000000000, 0.0000000000000000000, 0.0000000000000000000 ) ) ;
#218 = AXIS2_PLACEMENT_3D ( 'NONE', #170, #190, #189 ) ;
#219 = CIRCLE ( 'NONE', #218, 51.49999999999999300 ) ;
#220 = SPHERICAL_SURFACE ( 'NONE', #155, 51.49999999999999300 ) ;
#221 =( GEOMETRIC_REPRESENTATION_CONTEXT ( 3 ) GLOBAL_UNCERTAINTY_ASSIGNED_CONTEXT ( ( #222 ) ) GLOBAL_UNIT_ASSIGNED_CONTEXT ( ( #168, #167, #166 ) ) REPRESENTATION_CONTEXT ( 'NONE', 'WORKASPACE' ) );
#222 = UNCERTAINTY_MEASURE_WITH_UNIT (LENGTH_MEASURE( 1.000000000000000100E-005 ), #168, 'distance_accuracy_value', 'NONE');
#223 = MECHANICAL_DESIGN_GEOMETRIC_PRESENTATION_REPRESENTATION (  '', ( #225 ), #221 ) ;
#224 = PRESENTATION_LAYER_ASSIGNMENT (  '', '', ( #225 ) ) ;
#225 = STYLED_ITEM ( 'NONE', ( #226 ), #105 ) ;
#226 = PRESENTATION_STYLE_ASSIGNMENT (( #227 ) ) ;
#227 = SURFACE_STYLE_USAGE ( .BOTH. , #228 ) ;
#228 = SURFACE_SIDE_STYLE ('',( #229 ) ) ;
#229 = SURFACE_STYLE_FILL_AREA ( #230 ) ;
#230 = FILL_AREA_STYLE ('',( #210 ) ) ;
#231 = COLOUR_RGB ( '',0.9568627450980391500, 0.9490196078431372100, 0.9607843137254902200 ) ;
#232 = FACE_OUTER_BOUND ( 'NONE', #106, .T. ) ;
#233 = DIRECTION ( 'NONE',  ( 1.000000000000000000, 0.0000000000000000000, 0.0000000000000000000 ) ) ;
#234 = DIRECTION ( 'NONE',  ( 1.000000000000000000, 0.0000000000000000000, 0.0000000000000000000 ) ) ;
#235 = DIRECTION ( 'NONE',  ( 0.0000000000000000000, 0.0000000000000000000, 1.000000000000000000 ) ) ;
#236 = AXIS2_PLACEMENT_3D ( 'NONE', #135, #235, #234 ) ;
#237 =( GEOMETRIC_REPRESENTATION_CONTEXT ( 3 ) GLOBAL_UNCERTAINTY_ASSIGNED_CONTEXT ( ( #238 ) ) GLOBAL_UNIT_ASSIGNED_CONTEXT ( ( #241, #240, #239 ) ) REPRESENTATION_CONTEXT ( 'NONE', 'WORKASPACE' ) );
#238 = UNCERTAINTY_MEASURE_WITH_UNIT (LENGTH_MEASURE( 1.000000000000000100E-005 ), #241, 'distance_accuracy_value', 'NONE');
#239 =( NAMED_UNIT ( * ) SI_UNIT ( $, .STERADIAN. ) SOLID_ANGLE_UNIT ( ) );
#240 =( NAMED_UNIT ( * ) PLANE_ANGLE_UNIT ( ) SI_UNIT ( $, .RADIAN. ) );
#241 =( LENGTH_UNIT ( ) NAMED_UNIT ( * ) SI_UNIT ( .MILLI., .METRE. ) );
#242 = MECHANICAL_DESIGN_GEOMETRIC_PRESENTATION_REPRESENTATION (  '', ( #244 ), #237 ) ;
#243 = PRESENTATION_LAYER_ASSIGNMENT (  '', '', ( #244 ) ) ;
#244 = STYLED_ITEM ( 'NONE', ( #245 ), #159 ) ;
#245 = PRESENTATION_STYLE_ASSIGNMENT (( #246 ) ) ;
#246 = SURFACE_STYLE_USAGE ( .BOTH. , #247 ) ;
#247 = SURFACE_SIDE_STYLE ('',( #248 ) ) ;
#248 = SURFACE_STYLE_FILL_AREA ( #249 ) ;
#249 = FILL_AREA_STYLE ('',( #250 ) ) ;
#250 = FILL_AREA_STYLE_COLOUR ( '', #251 ) ;
#251 = COLOUR_RGB ( '',0.7960784313725489700, 0.8235294117647058400, 0.9372549019607843100 ) ;
#252 =( GEOMETRIC_REPRESENTATION_CONTEXT ( 3 ) GLOBAL_UNCERTAINTY_ASSIGNED_CONTEXT ( ( #2 ) ) GLOBAL_UNIT_ASSIGNED_CONTEXT ( ( #68, #67, #3 ) ) REPRESENTATION_CONTEXT ( 'NONE', 'WORKASPACE' ) );
#253 = DIRECTION ( 'NONE',  ( -0.0000000000000000000, -0.0000000000000000000, 1.000000000000000000 ) ) ;
#254 = AXIS2_PLACEMENT_3D ( 'NONE', #171, #197, #191 ) ;
#255 = PRODUCT_DEFINITION_SHAPE ( 'NONE', 'NONE',  #257 ) ;
#256 = SHAPE_DEFINITION_REPRESENTATION ( #255, #159 ) ;
#257 = PRODUCT_DEFINITION ( 'UNKNOWN', '', #261, #259 ) ;
#258 = APPLICATION_PROTOCOL_DEFINITION ( 'draft international standard', 'automotive_design', 1998, #1 ) ;
#259 = PRODUCT_DEFINITION_CONTEXT ( 'detailed design', #1, 'design' ) ;
#260 = PRODUCT_RELATED_PRODUCT_CATEGORY ( 'part', '', ( #201 ) ) ;
#261 = PRODUCT_DEFINITION_FORMATION_WITH_SPECIFIED_SOURCE ( 'ANY', '', #201, .NOT_KNOWN. ) ;
ENDSEC;
END-ISO-10303-21;
