ISO-10303-21;
HEADER;
FILE_DESCRIPTION (( 'STEP AP214' ),
    '1' );
FILE_NAME ('4521-E0W.STEP',
    '2009-12-21T17:07:32',
    ( ' ' ),
    ( ' ' ),
    'SwSTEP 2.0',
    'SolidWorks 2009',
    '' );
FILE_SCHEMA (( 'AUTOMOTIVE_DESIGN' ));
ENDSEC;

DATA;
#1 = EDGE_CURVE ( 'NONE', #14, #40, #61, .T. ) ;
#2 = ORIENTED_EDGE ( 'NONE', *, *, #19, .T. ) ;
#3 = ORIENTED_EDGE ( 'NONE', *, *, #13, .F. ) ;
#4 = ADVANCED_FACE ( 'NONE', ( #62 ), #91, .T. ) ;
#5 = ORIENTED_EDGE ( 'NONE', *, *, #34, .F. ) ;
#6 = EDGE_LOOP ( 'NONE', ( #46, #47, #48, #49 ) ) ;
#7 = ORIENTED_EDGE ( 'NONE', *, *, #39, .F. ) ;
#8 = ORIENTED_EDGE ( 'NONE', *, *, #32, .T. ) ;
#9 = EDGE_LOOP ( 'NONE', ( #18, #27, #43, #29, #28 ) ) ;
#10 = ADVANCED_FACE ( 'NONE', ( #93 ), #104, .F. ) ;
#11 = EDGE_LOOP ( 'NONE', ( #3, #7 ) ) ;
#12 = VERTEX_POINT ( 'NONE', #69 ) ;
#13 = EDGE_CURVE ( 'NONE', #31, #33, #103, .T. ) ;
#14 = VERTEX_POINT ( 'NONE', #81 ) ;
#15 = ORIENTED_EDGE ( 'NONE', *, *, #16, .F. ) ;
#16 = EDGE_CURVE ( 'NONE', #40, #24, #112, .T. ) ;
#17 =( NAMED_UNIT ( * ) SI_UNIT ( $, .STERADIAN. ) SOLID_ANGLE_UNIT ( ) );
#18 = ORIENTED_EDGE ( 'NONE', *, *, #13, .T. ) ;
#19 = EDGE_CURVE ( 'NONE', #35, #24, #154, .T. ) ;
#20 = MANIFOLD_SOLID_BREP ( 'NONE', #22 ) ;
#21 = ADVANCED_FACE ( 'NONE', ( #136 ), #149, .T. ) ;
#22 = CLOSED_SHELL ( 'NONE', ( #21, #25, #4, #41, #10 ) ) ;
#23 = ORIENTED_EDGE ( 'NONE', *, *, #34, .T. ) ;
#24 = VERTEX_POINT ( 'NONE', #161 ) ;
#25 = ADVANCED_FACE ( 'NONE', ( #163 ), #171, .T. ) ;
#26 = EDGE_CURVE ( 'NONE', #31, #14, #192, .T. ) ;
#27 = ORIENTED_EDGE ( 'NONE', *, *, #30, .T. ) ;
#28 = ORIENTED_EDGE ( 'NONE', *, *, #26, .F. ) ;
#29 = ORIENTED_EDGE ( 'NONE', *, *, #1, .F. ) ;
#30 = EDGE_CURVE ( 'NONE', #33, #12, #187, .T. ) ;
#31 = VERTEX_POINT ( 'NONE', #193 ) ;
#32 = EDGE_CURVE ( 'NONE', #40, #12, #160, .T. ) ;
#33 = VERTEX_POINT ( 'NONE', #173 ) ;
#34 = EDGE_CURVE ( 'NONE', #12, #35, #107, .T. ) ;
#35 = VERTEX_POINT ( 'NONE', #202 ) ;
#36 = EDGE_LOOP ( 'NONE', ( #8, #23, #2, #15 ) ) ;
#37 = ORIENTED_EDGE ( 'NONE', *, *, #30, .F. ) ;
#38 = ORIENTED_EDGE ( 'NONE', *, *, #39, .T. ) ;
#39 = EDGE_CURVE ( 'NONE', #33, #31, #213, .T. ) ;
#40 = VERTEX_POINT ( 'NONE', #196 ) ;
#41 = ADVANCED_FACE ( 'NONE', ( #206 ), #227, .T. ) ;
#42 = EDGE_LOOP ( 'NONE', ( #37, #38, #44, #45, #5 ) ) ;
#43 = ORIENTED_EDGE ( 'NONE', *, *, #32, .F. ) ;
#44 = ORIENTED_EDGE ( 'NONE', *, *, #26, .T. ) ;
#45 = ORIENTED_EDGE ( 'NONE', *, *, #63, .F. ) ;
#46 = ORIENTED_EDGE ( 'NONE', *, *, #19, .F. ) ;
#47 = ORIENTED_EDGE ( 'NONE', *, *, #63, .T. ) ;
#48 = ORIENTED_EDGE ( 'NONE', *, *, #1, .T. ) ;
#49 = ORIENTED_EDGE ( 'NONE', *, *, #16, .T. ) ;
#50 = PRESENTATION_STYLE_ASSIGNMENT (( #51 ) ) ;
#51 = SURFACE_STYLE_USAGE ( .BOTH. , #52 ) ;
#52 = SURFACE_SIDE_STYLE ('',( #53 ) ) ;
#53 = SURFACE_STYLE_FILL_AREA ( #54 ) ;
#54 = FILL_AREA_STYLE ('',( #58 ) ) ;
#55 = DIRECTION ( 'NONE',  ( 1.000000000000000000, 0.0000000000000000000, 0.0000000000000000000 ) ) ;
#56 = DIRECTION ( 'NONE',  ( -0.0000000000000000000, -0.0000000000000000000, 1.000000000000000000 ) ) ;
#57 = CARTESIAN_POINT ( 'NONE',  ( 0.0000000000000000000, 0.0000000000000000000, 0.8693959354529384700 ) ) ;
#58 = FILL_AREA_STYLE_COLOUR ( '', #59 ) ;
#59 = COLOUR_RGB ( '',0.9568627450980391500, 0.9490196078431372100, 0.9607843137254902200 ) ;
#60 = UNCERTAINTY_MEASURE_WITH_UNIT (LENGTH_MEASURE( 1.000000000000000100E-005 ), #228, 'distance_accuracy_value', 'NONE');
#61 = CIRCLE ( 'NONE', #64, 25.39999999999999900 ) ;
#62 = FACE_OUTER_BOUND ( 'NONE', #6, .T. ) ;
#63 = EDGE_CURVE ( 'NONE', #35, #14, #223, .T. ) ;
#64 = AXIS2_PLACEMENT_3D ( 'NONE', #57, #56, #55 ) ;
#65 =( NAMED_UNIT ( * ) PLANE_ANGLE_UNIT ( ) SI_UNIT ( $, .RADIAN. ) );
#66 = MECHANICAL_DESIGN_GEOMETRIC_PRESENTATION_REPRESENTATION (  '', ( #72 ), #106 ) ;
#67 = CARTESIAN_POINT ( 'NONE',  ( 0.0000000000000000000, 7.807123344564376500E-016, -2.125000000000000000 ) ) ;
#68 = AXIS2_PLACEMENT_3D ( 'NONE', #67, #95, #94 ) ;
#69 = CARTESIAN_POINT ( 'NONE',  ( -25.39999999999999900, 3.110500138708838200E-015, 0.8693959354529384700 ) ) ;
#70 =( NAMED_UNIT ( * ) PLANE_ANGLE_UNIT ( ) SI_UNIT ( $, .RADIAN. ) );
#71 =( NAMED_UNIT ( * ) SI_UNIT ( $, .STERADIAN. ) SOLID_ANGLE_UNIT ( ) );
#72 = STYLED_ITEM ( 'NONE', ( #50 ), #4 ) ;
#73 =( LENGTH_UNIT ( ) NAMED_UNIT ( * ) SI_UNIT ( .MILLI., .METRE. ) );
#74 =( GEOMETRIC_REPRESENTATION_CONTEXT ( 3 ) GLOBAL_UNCERTAINTY_ASSIGNED_CONTEXT ( ( #99 ) ) GLOBAL_UNIT_ASSIGNED_CONTEXT ( ( #73, #65, #100 ) ) REPRESENTATION_CONTEXT ( 'NONE', 'WORKASPACE' ) );
#75 = PRESENTATION_STYLE_ASSIGNMENT (( #76 ) ) ;
#76 = SURFACE_STYLE_USAGE ( .BOTH. , #77 ) ;
#77 = SURFACE_SIDE_STYLE ('',( #78 ) ) ;
#78 = SURFACE_STYLE_FILL_AREA ( #79 ) ;
#79 = FILL_AREA_STYLE ('',( #86 ) ) ;
#80 = DIRECTION ( 'NONE',  ( -0.0000000000000000000, -0.0000000000000000000, 1.000000000000000000 ) ) ;
#81 = CARTESIAN_POINT ( 'NONE',  ( 25.39999999999999900, 0.0000000000000000000, 0.8693959354529384700 ) ) ;
#82 = DIRECTION ( 'NONE',  ( 1.000000000000000000, 0.0000000000000000000, 0.0000000000000000000 ) ) ;
#83 = DIRECTION ( 'NONE',  ( -0.0000000000000000000, -0.0000000000000000000, 1.000000000000000000 ) ) ;
#84 = CARTESIAN_POINT ( 'NONE',  ( 0.0000000000000000000, 0.0000000000000000000, -2.125000000000000000 ) ) ;
#85 =( LENGTH_UNIT ( ) NAMED_UNIT ( * ) SI_UNIT ( .MILLI., .METRE. ) );
#86 = FILL_AREA_STYLE_COLOUR ( '', #92 ) ;
#87 = DIRECTION ( 'NONE',  ( 0.0000000000000000000, 1.000000000000000000, 0.0000000000000000000 ) ) ;
#88 = DIRECTION ( 'NONE',  ( -1.000000000000000000, 0.0000000000000000000, 0.0000000000000000000 ) ) ;
#89 = CARTESIAN_POINT ( 'NONE',  ( 0.0000000000000000000, 0.0000000000000000000, -255.4150000000000500 ) ) ;
#90 = UNCERTAINTY_MEASURE_WITH_UNIT (LENGTH_MEASURE( 1.000000000000000100E-005 ), #85, 'distance_accuracy_value', 'NONE');
#91 = SPHERICAL_SURFACE ( 'NONE', #101, 257.5400000000000800 ) ;
#92 = COLOUR_RGB ( '',0.9568627450980391500, 0.9490196078431372100, 0.9607843137254902200 ) ;
#93 = FACE_OUTER_BOUND ( 'NONE', #11, .T. ) ;
#94 = DIRECTION ( 'NONE',  ( 1.000000000000000000, 0.0000000000000000000, 0.0000000000000000000 ) ) ;
#95 = DIRECTION ( 'NONE',  ( 0.0000000000000000000, -0.0000000000000000000, 1.000000000000000000 ) ) ;
#96 = MECHANICAL_DESIGN_GEOMETRIC_PRESENTATION_REPRESENTATION (  '', ( #98 ), #74 ) ;
#97 = PRESENTATION_LAYER_ASSIGNMENT (  '', '', ( #98 ) ) ;
#98 = STYLED_ITEM ( 'NONE', ( #75 ), #10 ) ;
#99 = UNCERTAINTY_MEASURE_WITH_UNIT (LENGTH_MEASURE( 1.000000000000000100E-005 ), #73, 'distance_accuracy_value', 'NONE');
#100 =( NAMED_UNIT ( * ) SI_UNIT ( $, .STERADIAN. ) SOLID_ANGLE_UNIT ( ) );
#101 = AXIS2_PLACEMENT_3D ( 'NONE', #89, #88, #87 ) ;
#102 = AXIS2_PLACEMENT_3D ( 'NONE', #84, #83, #82 ) ;
#103 = CIRCLE ( 'NONE', #102, 25.39999999999999900 ) ;
#104 = PLANE ( 'NONE',  #68 ) ;
#105 = PRESENTATION_LAYER_ASSIGNMENT (  '', '', ( #72 ) ) ;
#106 =( GEOMETRIC_REPRESENTATION_CONTEXT ( 3 ) GLOBAL_UNCERTAINTY_ASSIGNED_CONTEXT ( ( #90 ) ) GLOBAL_UNIT_ASSIGNED_CONTEXT ( ( #85, #70, #71 ) ) REPRESENTATION_CONTEXT ( 'NONE', 'WORKASPACE' ) );
#107 = CIRCLE ( 'NONE', #109, 25.39999999999999900 ) ;
#108 = AXIS2_PLACEMENT_3D ( 'NONE', #113, #115, #116 ) ;
#109 = AXIS2_PLACEMENT_3D ( 'NONE', #110, #119, #118 ) ;
#110 = CARTESIAN_POINT ( 'NONE',  ( 0.0000000000000000000, 0.0000000000000000000, 0.8693959354529384700 ) ) ;
#111 =( GEOMETRIC_REPRESENTATION_CONTEXT ( 3 ) GLOBAL_UNCERTAINTY_ASSIGNED_CONTEXT ( ( #210 ) ) GLOBAL_UNIT_ASSIGNED_CONTEXT ( ( #212, #198, #211 ) ) REPRESENTATION_CONTEXT ( 'NONE', 'WORKASPACE' ) );
#112 = CIRCLE ( 'NONE', #108, 257.5400000000000800 ) ;
#113 = CARTESIAN_POINT ( 'NONE',  ( 0.0000000000000000000, 0.0000000000000000000, -255.4150000000000500 ) ) ;
#114 =( GEOMETRIC_REPRESENTATION_CONTEXT ( 3 ) GLOBAL_UNCERTAINTY_ASSIGNED_CONTEXT ( ( #60 ) ) GLOBAL_UNIT_ASSIGNED_CONTEXT ( ( #228, #221, #17 ) ) REPRESENTATION_CONTEXT ( 'NONE', 'WORKASPACE' ) );
#115 = DIRECTION ( 'NONE',  ( 1.000000000000000000, 0.0000000000000000000, 0.0000000000000000000 ) ) ;
#116 = DIRECTION ( 'NONE',  ( 0.0000000000000000000, 0.0000000000000000000, -1.000000000000000000 ) ) ;
#117 = DIRECTION ( 'NONE',  ( 1.000000000000000000, 0.0000000000000000000, 0.0000000000000000000 ) ) ;
#118 = DIRECTION ( 'NONE',  ( 1.000000000000000000, 0.0000000000000000000, 0.0000000000000000000 ) ) ;
#119 = DIRECTION ( 'NONE',  ( -0.0000000000000000000, -0.0000000000000000000, 1.000000000000000000 ) ) ;
#120 =( GEOMETRIC_REPRESENTATION_CONTEXT ( 3 ) GLOBAL_UNCERTAINTY_ASSIGNED_CONTEXT ( ( #146 ) ) GLOBAL_UNIT_ASSIGNED_CONTEXT ( ( #155, #143, #141 ) ) REPRESENTATION_CONTEXT ( 'NONE', 'WORKASPACE' ) );
#121 = PRESENTATION_LAYER_ASSIGNMENT (  '', '', ( #147 ) ) ;
#122 = SURFACE_SIDE_STYLE ('',( #132 ) ) ;
#123 =( NAMED_UNIT ( * ) PLANE_ANGLE_UNIT ( ) SI_UNIT ( $, .RADIAN. ) );
#124 = SURFACE_SIDE_STYLE ('',( #125 ) ) ;
#125 = SURFACE_STYLE_FILL_AREA ( #126 ) ;
#126 = FILL_AREA_STYLE ('',( #133 ) ) ;
#127 = FILL_AREA_STYLE ('',( #148 ) ) ;
#128 =( NAMED_UNIT ( * ) SI_UNIT ( $, .STERADIAN. ) SOLID_ANGLE_UNIT ( ) );
#129 =( GEOMETRIC_REPRESENTATION_CONTEXT ( 3 ) GLOBAL_UNCERTAINTY_ASSIGNED_CONTEXT ( ( #150 ) ) GLOBAL_UNIT_ASSIGNED_CONTEXT ( ( #142, #123, #128 ) ) REPRESENTATION_CONTEXT ( 'NONE', 'WORKASPACE' ) );
#130 = PRESENTATION_LAYER_ASSIGNMENT (  '', '', ( #131 ) ) ;
#131 = STYLED_ITEM ( 'NONE', ( #157 ), #21 ) ;
#132 = SURFACE_STYLE_FILL_AREA ( #127 ) ;
#133 = FILL_AREA_STYLE_COLOUR ( '', #134 ) ;
#134 = COLOUR_RGB ( '',0.9568627450980391500, 0.9490196078431372100, 0.9607843137254902200 ) ;
#135 = PRESENTATION_STYLE_ASSIGNMENT (( #137 ) ) ;
#136 = FACE_OUTER_BOUND ( 'NONE', #9, .T. ) ;
#137 = SURFACE_STYLE_USAGE ( .BOTH. , #122 ) ;
#138 = CARTESIAN_POINT ( 'NONE',  ( 0.0000000000000000000, 0.0000000000000000000, -255.4150000000000500 ) ) ;
#139 = CARTESIAN_POINT ( 'NONE',  ( 0.0000000000000000000, 0.0000000000000000000, 4.308132045400366600 ) ) ;
#140 = AXIS2_PLACEMENT_3D ( 'NONE', #139, #80, #117 ) ;
#141 =( NAMED_UNIT ( * ) SI_UNIT ( $, .STERADIAN. ) SOLID_ANGLE_UNIT ( ) );
#142 =( LENGTH_UNIT ( ) NAMED_UNIT ( * ) SI_UNIT ( .MILLI., .METRE. ) );
#143 =( NAMED_UNIT ( * ) PLANE_ANGLE_UNIT ( ) SI_UNIT ( $, .RADIAN. ) );
#144 = DIRECTION ( 'NONE',  ( -1.000000000000000000, 1.224606353822377300E-016, 0.0000000000000000000 ) ) ;
#145 = MECHANICAL_DESIGN_GEOMETRIC_PRESENTATION_REPRESENTATION (  '', ( #131 ), #120 ) ;
#146 = UNCERTAINTY_MEASURE_WITH_UNIT (LENGTH_MEASURE( 1.000000000000000100E-005 ), #155, 'distance_accuracy_value', 'NONE');
#147 = STYLED_ITEM ( 'NONE', ( #135 ), #20 ) ;
#148 = FILL_AREA_STYLE_COLOUR ( '', #151 ) ;
#149 = CYLINDRICAL_SURFACE ( 'NONE', #140, 25.39999999999999900 ) ;
#150 = UNCERTAINTY_MEASURE_WITH_UNIT (LENGTH_MEASURE( 1.000000000000000100E-005 ), #142, 'distance_accuracy_value', 'NONE');
#151 = COLOUR_RGB ( '',0.7960784313725489700, 0.8235294117647058400, 0.9372549019607843100 ) ;
#152 = MECHANICAL_DESIGN_GEOMETRIC_PRESENTATION_REPRESENTATION (  '', ( #147 ), #129 ) ;
#153 = AXIS2_PLACEMENT_3D ( 'NONE', #138, #144, #156 ) ;
#154 = CIRCLE ( 'NONE', #153, 257.5400000000000800 ) ;
#155 =( LENGTH_UNIT ( ) NAMED_UNIT ( * ) SI_UNIT ( .MILLI., .METRE. ) );
#156 = DIRECTION ( 'NONE',  ( -1.224606353822377300E-016, -1.000000000000000000, 0.0000000000000000000 ) ) ;
#157 = PRESENTATION_STYLE_ASSIGNMENT (( #158 ) ) ;
#158 = SURFACE_STYLE_USAGE ( .BOTH. , #124 ) ;
#159 = AXIS2_PLACEMENT_3D ( 'NONE', #176, #175, #174 ) ;
#160 = CIRCLE ( 'NONE', #159, 25.39999999999999900 ) ;
#161 = CARTESIAN_POINT ( 'NONE',  ( 0.0000000000000000000, 1.576925601817075800E-014, 2.125000000000043500 ) ) ;
#162 = COLOUR_RGB ( '',0.9568627450980391500, 0.9490196078431372100, 0.9607843137254902200 ) ;
#163 = FACE_OUTER_BOUND ( 'NONE', #36, .T. ) ;
#164 = FILL_AREA_STYLE ('',( #168 ) ) ;
#165 = PRESENTATION_LAYER_ASSIGNMENT (  '', '', ( #172 ) ) ;
#166 = MECHANICAL_DESIGN_GEOMETRIC_PRESENTATION_REPRESENTATION (  '', ( #172 ), #185 ) ;
#167 =( LENGTH_UNIT ( ) NAMED_UNIT ( * ) SI_UNIT ( .MILLI., .METRE. ) );
#168 = FILL_AREA_STYLE_COLOUR ( '', #162 ) ;
#169 = SURFACE_SIDE_STYLE ('',( #177 ) ) ;
#170 = AXIS2_PLACEMENT_3D ( 'NONE', #180, #179, #178 ) ;
#171 = SPHERICAL_SURFACE ( 'NONE', #170, 257.5400000000000800 ) ;
#172 = STYLED_ITEM ( 'NONE', ( #181 ), #25 ) ;
#173 = CARTESIAN_POINT ( 'NONE',  ( -25.39999999999999900, 3.110500138708838200E-015, -2.125000000000000000 ) ) ;
#174 = DIRECTION ( 'NONE',  ( 1.000000000000000000, 0.0000000000000000000, 0.0000000000000000000 ) ) ;
#175 = DIRECTION ( 'NONE',  ( -0.0000000000000000000, -0.0000000000000000000, 1.000000000000000000 ) ) ;
#176 = CARTESIAN_POINT ( 'NONE',  ( 0.0000000000000000000, 0.0000000000000000000, 0.8693959354529384700 ) ) ;
#177 = SURFACE_STYLE_FILL_AREA ( #164 ) ;
#178 = DIRECTION ( 'NONE',  ( 0.0000000000000000000, 1.000000000000000000, 0.0000000000000000000 ) ) ;
#179 = DIRECTION ( 'NONE',  ( -1.000000000000000000, 0.0000000000000000000, 0.0000000000000000000 ) ) ;
#180 = CARTESIAN_POINT ( 'NONE',  ( 0.0000000000000000000, 0.0000000000000000000, -255.4150000000000500 ) ) ;
#181 = PRESENTATION_STYLE_ASSIGNMENT (( #183 ) ) ;
#182 = UNCERTAINTY_MEASURE_WITH_UNIT (LENGTH_MEASURE( 1.000000000000000100E-005 ), #167, 'distance_accuracy_value', 'NONE');
#183 = SURFACE_STYLE_USAGE ( .BOTH. , #169 ) ;
#184 =( NAMED_UNIT ( * ) PLANE_ANGLE_UNIT ( ) SI_UNIT ( $, .RADIAN. ) );
#185 =( GEOMETRIC_REPRESENTATION_CONTEXT ( 3 ) GLOBAL_UNCERTAINTY_ASSIGNED_CONTEXT ( ( #182 ) ) GLOBAL_UNIT_ASSIGNED_CONTEXT ( ( #167, #184, #188 ) ) REPRESENTATION_CONTEXT ( 'NONE', 'WORKASPACE' ) );
#186 = CARTESIAN_POINT ( 'NONE',  ( -25.39999999999999900, 3.110500138708838200E-015, 4.308132045400366600 ) ) ;
#187 = LINE ( 'NONE', #186, #195 ) ;
#188 =( NAMED_UNIT ( * ) SI_UNIT ( $, .STERADIAN. ) SOLID_ANGLE_UNIT ( ) );
#189 = DIRECTION ( 'NONE',  ( -0.0000000000000000000, -0.0000000000000000000, 1.000000000000000000 ) ) ;
#190 = VECTOR ( 'NONE', #189, 1000.000000000000000 ) ;
#191 = CARTESIAN_POINT ( 'NONE',  ( 25.39999999999999900, 0.0000000000000000000, 4.308132045400366600 ) ) ;
#192 = LINE ( 'NONE', #191, #190 ) ;
#193 = CARTESIAN_POINT ( 'NONE',  ( 25.39999999999999900, 0.0000000000000000000, -2.125000000000000000 ) ) ;
#194 = DIRECTION ( 'NONE',  ( -0.0000000000000000000, -0.0000000000000000000, 1.000000000000000000 ) ) ;
#195 = VECTOR ( 'NONE', #194, 1000.000000000000000 ) ;
#196 = CARTESIAN_POINT ( 'NONE',  ( 0.0000000000000000000, 25.40000000000019400, 0.8693959354529076100 ) ) ;
#197 = AXIS2_PLACEMENT_3D ( 'NONE', #208, #207, #203 ) ;
#198 =( NAMED_UNIT ( * ) PLANE_ANGLE_UNIT ( ) SI_UNIT ( $, .RADIAN. ) );
#199 = SURFACE_STYLE_FILL_AREA ( #200 ) ;
#200 = FILL_AREA_STYLE ('',( #209 ) ) ;
#201 = COLOUR_RGB ( '',0.9568627450980391500, 0.9490196078431372100, 0.9607843137254902200 ) ;
#202 = CARTESIAN_POINT ( 'NONE',  ( -3.110500138708861800E-015, -25.40000000000019400, 0.8693959354529076100 ) ) ;
#203 = DIRECTION ( 'NONE',  ( 1.000000000000000000, 0.0000000000000000000, 0.0000000000000000000 ) ) ;
#204 = MECHANICAL_DESIGN_GEOMETRIC_PRESENTATION_REPRESENTATION (  '', ( #214 ), #111 ) ;
#205 = PRESENTATION_LAYER_ASSIGNMENT (  '', '', ( #214 ) ) ;
#206 = FACE_OUTER_BOUND ( 'NONE', #42, .T. ) ;
#207 = DIRECTION ( 'NONE',  ( -0.0000000000000000000, -0.0000000000000000000, 1.000000000000000000 ) ) ;
#208 = CARTESIAN_POINT ( 'NONE',  ( 0.0000000000000000000, 0.0000000000000000000, -2.125000000000000000 ) ) ;
#209 = FILL_AREA_STYLE_COLOUR ( '', #201 ) ;
#210 = UNCERTAINTY_MEASURE_WITH_UNIT (LENGTH_MEASURE( 1.000000000000000100E-005 ), #212, 'distance_accuracy_value', 'NONE');
#211 =( NAMED_UNIT ( * ) SI_UNIT ( $, .STERADIAN. ) SOLID_ANGLE_UNIT ( ) );
#212 =( LENGTH_UNIT ( ) NAMED_UNIT ( * ) SI_UNIT ( .MILLI., .METRE. ) );
#213 = CIRCLE ( 'NONE', #197, 25.39999999999999900 ) ;
#214 = STYLED_ITEM ( 'NONE', ( #215 ), #41 ) ;
#215 = PRESENTATION_STYLE_ASSIGNMENT (( #216 ) ) ;
#216 = SURFACE_STYLE_USAGE ( .BOTH. , #217 ) ;
#217 = SURFACE_SIDE_STYLE ('',( #199 ) ) ;
#218 =( LENGTH_UNIT ( ) NAMED_UNIT ( * ) SI_UNIT ( .MILLI., .METRE. ) );
#219 = CARTESIAN_POINT ( 'NONE',  ( 0.0000000000000000000, 0.0000000000000000000, 4.308132045400366600 ) ) ;
#220 =( NAMED_UNIT ( * ) PLANE_ANGLE_UNIT ( ) SI_UNIT ( $, .RADIAN. ) );
#221 =( NAMED_UNIT ( * ) PLANE_ANGLE_UNIT ( ) SI_UNIT ( $, .RADIAN. ) );
#222 =( GEOMETRIC_REPRESENTATION_CONTEXT ( 3 ) GLOBAL_UNCERTAINTY_ASSIGNED_CONTEXT ( ( #224 ) ) GLOBAL_UNIT_ASSIGNED_CONTEXT ( ( #218, #220, #234 ) ) REPRESENTATION_CONTEXT ( 'NONE', 'WORKASPACE' ) );
#223 = CIRCLE ( 'NONE', #229, 25.39999999999999900 ) ;
#224 = UNCERTAINTY_MEASURE_WITH_UNIT (LENGTH_MEASURE( 1.000000000000000100E-005 ), #218, 'distance_accuracy_value', 'NONE');
#225 = FILL_AREA_STYLE_COLOUR ( '', #226 ) ;
#226 = COLOUR_RGB ( '',0.7960784313725489700, 0.8235294117647058400, 0.9372549019607843100 ) ;
#227 = CYLINDRICAL_SURFACE ( 'NONE', #235, 25.39999999999999900 ) ;
#228 =( LENGTH_UNIT ( ) NAMED_UNIT ( * ) SI_UNIT ( .MILLI., .METRE. ) );
#229 = AXIS2_PLACEMENT_3D ( 'NONE', #245, #244, #233 ) ;
#230 = MECHANICAL_DESIGN_GEOMETRIC_PRESENTATION_REPRESENTATION (  '', ( #232 ), #114 ) ;
#231 = PRESENTATION_LAYER_ASSIGNMENT (  '', '', ( #232 ) ) ;
#232 = STYLED_ITEM ( 'NONE', ( #239 ), #238 ) ;
#233 = DIRECTION ( 'NONE',  ( 1.000000000000000000, 0.0000000000000000000, 0.0000000000000000000 ) ) ;
#234 =( NAMED_UNIT ( * ) SI_UNIT ( $, .STERADIAN. ) SOLID_ANGLE_UNIT ( ) );
#235 = AXIS2_PLACEMENT_3D ( 'NONE', #219, #237, #236 ) ;
#236 = DIRECTION ( 'NONE',  ( 1.000000000000000000, 0.0000000000000000000, 0.0000000000000000000 ) ) ;
#237 = DIRECTION ( 'NONE',  ( -0.0000000000000000000, -0.0000000000000000000, 1.000000000000000000 ) ) ;
#238 = ADVANCED_BREP_SHAPE_REPRESENTATION ( '4521-E0W', ( #20, #248 ), #222 ) ;
#239 = PRESENTATION_STYLE_ASSIGNMENT (( #240 ) ) ;
#240 = SURFACE_STYLE_USAGE ( .BOTH. , #241 ) ;
#241 = SURFACE_SIDE_STYLE ('',( #242 ) ) ;
#242 = SURFACE_STYLE_FILL_AREA ( #243 ) ;
#243 = FILL_AREA_STYLE ('',( #225 ) ) ;
#244 = DIRECTION ( 'NONE',  ( -0.0000000000000000000, -0.0000000000000000000, 1.000000000000000000 ) ) ;
#245 = CARTESIAN_POINT ( 'NONE',  ( 0.0000000000000000000, 0.0000000000000000000, 0.8693959354529384700 ) ) ;
#246 = CARTESIAN_POINT ( 'NONE',  ( 0.0000000000000000000, 0.0000000000000000000, 0.0000000000000000000 ) ) ;
#247 = DIRECTION ( 'NONE',  ( 1.000000000000000000, 0.0000000000000000000, 0.0000000000000000000 ) ) ;
#248 = AXIS2_PLACEMENT_3D ( 'NONE', #246, #249, #247 ) ;
#249 = DIRECTION ( 'NONE',  ( 0.0000000000000000000, 0.0000000000000000000, 1.000000000000000000 ) ) ;
#250 = PRODUCT ( '4521-E0W', '4521-E0W', '', ( #251 ) ) ;
#251 = PRODUCT_CONTEXT ( 'NONE', #254, 'mechanical' ) ;
#252 = APPLICATION_PROTOCOL_DEFINITION ( 'draft international standard', 'automotive_design', 1998, #254 ) ;
#253 = PRODUCT_RELATED_PRODUCT_CATEGORY ( 'part', '', ( #250 ) ) ;
#254 = APPLICATION_CONTEXT ( 'automotive_design' ) ;
#255 = PRODUCT_DEFINITION_SHAPE ( 'NONE', 'NONE',  #260 ) ;
#256 = SHAPE_DEFINITION_REPRESENTATION ( #255, #238 ) ;
#257 = APPLICATION_PROTOCOL_DEFINITION ( 'draft international standard', 'automotive_design', 1998, #258 ) ;
#258 = APPLICATION_CONTEXT ( 'automotive_design' ) ;
#259 = PRODUCT_DEFINITION_FORMATION_WITH_SPECIFIED_SOURCE ( 'ANY', '', #250, .NOT_KNOWN. ) ;
#260 = PRODUCT_DEFINITION ( 'UNKNOWN', '', #259, #261 ) ;
#261 = PRODUCT_DEFINITION_CONTEXT ( 'detailed design', #258, 'design' ) ;
ENDSEC;
END-ISO-10303-21;
