ISO-10303-21;
HEADER;
FILE_DESCRIPTION (( 'STEP AP203' ),
    '1' );
FILE_NAME ('Web Model 14958_14958.step',
    '2020-07-27T18:31:18',
    ( '' ),
    ( '' ),
    'SwSTEP 2.0',
    'SolidWorks 2018',
    '' );
FILE_SCHEMA (( 'CONFIG_CONTROL_DESIGN' ));
ENDSEC;

DATA;
#1 = CARTESIAN_POINT ( 'NONE',  ( -1.000000000000000000, 0.0000000000000000000, 0.0000000000000000000 ) ) ;
#2 = APPROVAL_PERSON_ORGANIZATION ( #47, #159, #117 ) ;
#3 = DIRECTION ( 'NONE',  ( 0.0000000000000000000, 0.0000000000000000000, -1.000000000000000000 ) ) ;
#4 = VERTEX_POINT ( 'NONE', #153 ) ;
#5 = EDGE_LOOP ( 'NONE', ( #69, #108, #173, #40 ) ) ;
#6 = CARTESIAN_POINT ( 'NONE',  ( 1.000000000000000000, 0.0000000000000000000, 6.250000000000000000 ) ) ;
#7 = DIRECTION ( 'NONE',  ( 0.0000000000000000000, 0.0000000000000000000, 1.000000000000000000 ) ) ;
#8 = PRODUCT_DEFINITION_FORMATION_WITH_SPECIFIED_SOURCE ( 'ANY', '', #110, .NOT_KNOWN. ) ;
#9 = FACE_OUTER_BOUND ( 'NONE', #5, .T. ) ;
#10 =( LENGTH_UNIT ( ) NAMED_UNIT ( * ) SI_UNIT ( .MILLI., .METRE. ) );
#11 = CALENDAR_DATE ( 2020, 27, 7 ) ;
#12 = AXIS2_PLACEMENT_3D ( 'NONE', #94, #53, #24 ) ;
#13 = LOCAL_TIME ( 14, 31, 18.00000000000000000, #142 ) ;
#14 = COORDINATED_UNIVERSAL_TIME_OFFSET ( 5, 0, .BEHIND. ) ;
#15 = COORDINATED_UNIVERSAL_TIME_OFFSET ( 5, 0, .BEHIND. ) ;
#16 = PERSON_AND_ORGANIZATION_ROLE ( 'design_supplier' ) ;
#17 =( GEOMETRIC_REPRESENTATION_CONTEXT ( 3 ) GLOBAL_UNCERTAINTY_ASSIGNED_CONTEXT ( ( #111 ) ) GLOBAL_UNIT_ASSIGNED_CONTEXT ( ( #10, #130, #105 ) ) REPRESENTATION_CONTEXT ( 'NONE', 'WORKASPACE' ) );
#18 = CALENDAR_DATE ( 2020, 27, 7 ) ;
#19 = CLOSED_SHELL ( 'NONE', ( #75, #151, #46, #164 ) ) ;
#20 = CC_DESIGN_SECURITY_CLASSIFICATION ( #41, ( #8 ) ) ;
#21 = PERSON ( 'UNSPECIFIED', 'UNSPECIFIED', 'UNSPECIFIED', ('UNSPECIFIED'), ('UNSPECIFIED'), ('UNSPECIFIED') ) ;
#22 = CC_DESIGN_APPROVAL ( #162, ( #8 ) ) ;
#23 = PERSON_AND_ORGANIZATION ( #21, #80 ) ;
#24 = DIRECTION ( 'NONE',  ( 0.0000000000000000000, 0.0000000000000000000, -1.000000000000000000 ) ) ;
#25 = APPROVAL_ROLE ( '' ) ;
#26 = PRODUCT_DEFINITION_SHAPE ( 'NONE', 'NONE',  #135 ) ;
#27 = LINE ( 'NONE', #77, #102 ) ;
#28 = CC_DESIGN_PERSON_AND_ORGANIZATION_ASSIGNMENT ( #92, #107, ( #8 ) ) ;
#29 = APPROVAL_DATE_TIME ( #104, #71 ) ;
#30 = PERSON_AND_ORGANIZATION_ROLE ( 'classification_officer' ) ;
#31 = SECURITY_CLASSIFICATION_LEVEL ( 'unclassified' ) ;
#32 = EDGE_CURVE ( 'NONE', #4, #67, #169, .T. ) ;
#33 = VERTEX_POINT ( 'NONE', #137 ) ;
#34 = CC_DESIGN_PERSON_AND_ORGANIZATION_ASSIGNMENT ( #83, #97, ( #135 ) ) ;
#35 = APPROVAL_PERSON_ORGANIZATION ( #93, #71, #25 ) ;
#36 = DIRECTION ( 'NONE',  ( 1.000000000000000000, 0.0000000000000000000, 0.0000000000000000000 ) ) ;
#37 = APPLICATION_PROTOCOL_DEFINITION ( 'international standard', 'config_control_design', 1994, #140 ) ;
#38 = AXIS2_PLACEMENT_3D ( 'NONE', #81, #167, #54 ) ;
#39 = DIRECTION ( 'NONE',  ( 0.0000000000000000000, 0.0000000000000000000, 1.000000000000000000 ) ) ;
#40 = ORIENTED_EDGE ( 'NONE', *, *, #145, .T. ) ;
#41 = SECURITY_CLASSIFICATION ( '', '', #31 ) ;
#42 = FACE_OUTER_BOUND ( 'NONE', #160, .T. ) ;
#43 = PERSON_AND_ORGANIZATION ( #21, #80 ) ;
#44 = DATE_TIME_ROLE ( 'classification_date' ) ;
#45 = ORIENTED_EDGE ( 'NONE', *, *, #145, .F. ) ;
#46 = ADVANCED_FACE ( 'NONE', ( #106 ), #49, .T. ) ;
#47 = PERSON_AND_ORGANIZATION ( #21, #80 ) ;
#48 = DATE_AND_TIME ( #18, #148 ) ;
#49 = PLANE ( 'NONE',  #119 ) ;
#50 = VERTEX_POINT ( 'NONE', #62 ) ;
#51 = PRODUCT_RELATED_PRODUCT_CATEGORY ( 'detail', '', ( #110 ) ) ;
#52 = CC_DESIGN_PERSON_AND_ORGANIZATION_ASSIGNMENT ( #125, #30, ( #41 ) ) ;
#53 = DIRECTION ( 'NONE',  ( 1.000000000000000000, 0.0000000000000000000, 0.0000000000000000000 ) ) ;
#54 = DIRECTION ( 'NONE',  ( 0.0000000000000000000, 0.0000000000000000000, -1.000000000000000000 ) ) ;
#55 = APPROVAL_PERSON_ORGANIZATION ( #152, #162, #70 ) ;
#56 = DIRECTION ( 'NONE',  ( 1.000000000000000000, 0.0000000000000000000, 0.0000000000000000000 ) ) ;
#57 = AXIS2_PLACEMENT_3D ( 'NONE', #61, #36, #127 ) ;
#58 = DATE_AND_TIME ( #11, #84 ) ;
#59 = SHAPE_DEFINITION_REPRESENTATION ( #26, #158 ) ;
#60 = CC_DESIGN_DATE_AND_TIME_ASSIGNMENT ( #58, #44, ( #41 ) ) ;
#61 = CARTESIAN_POINT ( 'NONE',  ( 1.000000000000000000, 0.0000000000000000000, 0.0000000000000000000 ) ) ;
#62 = CARTESIAN_POINT ( 'NONE',  ( -1.000000000000000000, 0.0000000000000000000, 6.250000000000000000 ) ) ;
#63 = MECHANICAL_CONTEXT ( 'NONE', #140, 'mechanical' ) ;
#64 = CIRCLE ( 'NONE', #149, 6.250000000000000000 ) ;
#65 = DIRECTION ( 'NONE',  ( 0.0000000000000000000, 0.0000000000000000000, -1.000000000000000000 ) ) ;
#66 = AXIS2_PLACEMENT_3D ( 'NONE', #168, #144, #7 ) ;
#67 = VERTEX_POINT ( 'NONE', #99 ) ;
#68 = DIRECTION ( 'NONE',  ( 1.000000000000000000, 0.0000000000000000000, 0.0000000000000000000 ) ) ;
#69 = ORIENTED_EDGE ( 'NONE', *, *, #120, .F. ) ;
#70 = APPROVAL_ROLE ( '' ) ;
#71 = APPROVAL ( #96, 'UNSPECIFIED' ) ;
#72 = DATE_TIME_ROLE ( 'creation_date' ) ;
#73 = LINE ( 'NONE', #6, #163 ) ;
#74 = CIRCLE ( 'NONE', #175, 6.250000000000000000 ) ;
#75 = ADVANCED_FACE ( 'NONE', ( #138 ), #174, .T. ) ;
#76 = CARTESIAN_POINT ( 'NONE',  ( 1.000000000000000000, 0.0000000000000000000, 0.0000000000000000000 ) ) ;
#77 = CARTESIAN_POINT ( 'NONE',  ( 1.000000000000000000, 7.654042494670957606E-16, -6.250000000000000000 ) ) ;
#78 = CC_DESIGN_PERSON_AND_ORGANIZATION_ASSIGNMENT ( #23, #16, ( #8 ) ) ;
#79 = PERSON_AND_ORGANIZATION_ROLE ( 'design_owner' ) ;
#80 = ORGANIZATION ( 'UNSPECIFIED', 'UNSPECIFIED', '' ) ;
#81 = CARTESIAN_POINT ( 'NONE',  ( 1.000000000000000000, 0.0000000000000000000, 0.0000000000000000000 ) ) ;
#82 = ORIENTED_EDGE ( 'NONE', *, *, #124, .T. ) ;
#83 = PERSON_AND_ORGANIZATION ( #21, #80 ) ;
#84 = LOCAL_TIME ( 14, 31, 18.00000000000000000, #88 ) ;
#85 = ORIENTED_EDGE ( 'NONE', *, *, #32, .F. ) ;
#86 = AXIS2_PLACEMENT_3D ( 'NONE', #76, #161, #129 ) ;
#87 = DATE_AND_TIME ( #150, #13 ) ;
#88 = COORDINATED_UNIVERSAL_TIME_OFFSET ( 5, 0, .BEHIND. ) ;
#89 = DIRECTION ( 'NONE',  ( -1.000000000000000000, -0.0000000000000000000, -0.0000000000000000000 ) ) ;
#90 = DIRECTION ( 'NONE',  ( 1.000000000000000000, 0.0000000000000000000, 0.0000000000000000000 ) ) ;
#91 = APPLICATION_PROTOCOL_DEFINITION ( 'international standard', 'config_control_design', 1994, #165 ) ;
#92 = PERSON_AND_ORGANIZATION ( #21, #80 ) ;
#93 = PERSON_AND_ORGANIZATION ( #21, #80 ) ;
#94 = CARTESIAN_POINT ( 'NONE',  ( -1.000000000000000000, 0.0000000000000000000, 0.0000000000000000000 ) ) ;
#95 = CC_DESIGN_APPROVAL ( #71, ( #41 ) ) ;
#96 = APPROVAL_STATUS ( 'not_yet_approved' ) ;
#97 = PERSON_AND_ORGANIZATION_ROLE ( 'creator' ) ;
#98 = CYLINDRICAL_SURFACE ( 'NONE', #66, 6.250000000000000000 ) ;
#99 = CARTESIAN_POINT ( 'NONE',  ( 1.000000000000000000, 0.0000000000000000000, 6.250000000000000000 ) ) ;
#100 = ORIENTED_EDGE ( 'NONE', *, *, #118, .F. ) ;
#101 = CC_DESIGN_PERSON_AND_ORGANIZATION_ASSIGNMENT ( #43, #79, ( #110 ) ) ;
#102 = VECTOR ( 'NONE', #171, 1000.000000000000000 ) ;
#103 = CARTESIAN_POINT ( 'NONE',  ( -1.000000000000000000, 0.0000000000000000000, 0.0000000000000000000 ) ) ;
#104 = DATE_AND_TIME ( #131, #126 ) ;
#105 =( NAMED_UNIT ( * ) SI_UNIT ( $, .STERADIAN. ) SOLID_ANGLE_UNIT ( ) );
#106 = FACE_OUTER_BOUND ( 'NONE', #157, .T. ) ;
#107 = PERSON_AND_ORGANIZATION_ROLE ( 'creator' ) ;
#108 = ORIENTED_EDGE ( 'NONE', *, *, #133, .F. ) ;
#109 = CC_DESIGN_APPROVAL ( #159, ( #135 ) ) ;
#110 = PRODUCT ( 'Web Model 14958_14958', 'Web Model 14958_14958', '', ( #63 ) ) ;
#111 = UNCERTAINTY_MEASURE_WITH_UNIT (LENGTH_MEASURE( 1.000000000000000082E-05 ), #10, 'distance_accuracy_value', 'NONE');
#112 = ORIENTED_EDGE ( 'NONE', *, *, #120, .T. ) ;
#113 = APPROVAL_DATE_TIME ( #87, #159 ) ;
#114 = CARTESIAN_POINT ( 'NONE',  ( 0.0000000000000000000, 0.0000000000000000000, 0.0000000000000000000 ) ) ;
#115 = DIRECTION ( 'NONE',  ( 1.000000000000000000, 0.0000000000000000000, 0.0000000000000000000 ) ) ;
#116 = LOCAL_TIME ( 14, 31, 18.00000000000000000, #15 ) ;
#117 = APPROVAL_ROLE ( '' ) ;
#118 = EDGE_CURVE ( 'NONE', #67, #50, #73, .T. ) ;
#119 = AXIS2_PLACEMENT_3D ( 'NONE', #136, #90, #3 ) ;
#120 = EDGE_CURVE ( 'NONE', #4, #33, #27, .T. ) ;
#121 = CALENDAR_DATE ( 2020, 27, 7 ) ;
#122 = EDGE_LOOP ( 'NONE', ( #85, #112, #82, #100 ) ) ;
#123 = APPROVAL_STATUS ( 'not_yet_approved' ) ;
#124 = EDGE_CURVE ( 'NONE', #33, #50, #64, .T. ) ;
#125 = PERSON_AND_ORGANIZATION ( #21, #80 ) ;
#126 = LOCAL_TIME ( 14, 31, 18.00000000000000000, #166 ) ;
#127 = DIRECTION ( 'NONE',  ( 0.0000000000000000000, 0.0000000000000000000, -1.000000000000000000 ) ) ;
#128 = MANIFOLD_SOLID_BREP ( 'Boss-Extrude1', #19 ) ;
#129 = DIRECTION ( 'NONE',  ( 0.0000000000000000000, 0.0000000000000000000, 1.000000000000000000 ) ) ;
#130 =( NAMED_UNIT ( * ) PLANE_ANGLE_UNIT ( ) SI_UNIT ( $, .RADIAN. ) );
#131 = CALENDAR_DATE ( 2020, 27, 7 ) ;
#132 = ORIENTED_EDGE ( 'NONE', *, *, #32, .T. ) ;
#133 = EDGE_CURVE ( 'NONE', #67, #4, #139, .T. ) ;
#134 = ORIENTED_EDGE ( 'NONE', *, *, #133, .T. ) ;
#135 = PRODUCT_DEFINITION ( 'UNKNOWN', '', #8, #147 ) ;
#136 = CARTESIAN_POINT ( 'NONE',  ( 1.000000000000000000, 0.0000000000000000000, 0.0000000000000000000 ) ) ;
#137 = CARTESIAN_POINT ( 'NONE',  ( -1.000000000000000000, 7.654042494670957606E-16, -6.250000000000000000 ) ) ;
#138 = FACE_OUTER_BOUND ( 'NONE', #122, .T. ) ;
#139 = CIRCLE ( 'NONE', #38, 6.250000000000000000 ) ;
#140 = APPLICATION_CONTEXT ( 'configuration controlled 3d designs of mechanical parts and assemblies' ) ;
#141 = DIRECTION ( 'NONE',  ( 0.0000000000000000000, 0.0000000000000000000, -1.000000000000000000 ) ) ;
#142 = COORDINATED_UNIVERSAL_TIME_OFFSET ( 5, 0, .BEHIND. ) ;
#143 = PLANE ( 'NONE',  #12 ) ;
#144 = DIRECTION ( 'NONE',  ( -1.000000000000000000, -0.0000000000000000000, -0.0000000000000000000 ) ) ;
#145 = EDGE_CURVE ( 'NONE', #50, #33, #74, .T. ) ;
#146 = AXIS2_PLACEMENT_3D ( 'NONE', #114, #39, #68 ) ;
#147 = DESIGN_CONTEXT ( 'detailed design', #165, 'design' ) ;
#148 = LOCAL_TIME ( 14, 31, 18.00000000000000000, #14 ) ;
#149 = AXIS2_PLACEMENT_3D ( 'NONE', #1, #56, #65 ) ;
#150 = CALENDAR_DATE ( 2020, 27, 7 ) ;
#151 = ADVANCED_FACE ( 'NONE', ( #9 ), #98, .T. ) ;
#152 = PERSON_AND_ORGANIZATION ( #21, #80 ) ;
#153 = CARTESIAN_POINT ( 'NONE',  ( 1.000000000000000000, 7.654042494670957606E-16, -6.250000000000000000 ) ) ;
#154 = DATE_AND_TIME ( #121, #116 ) ;
#155 = ORIENTED_EDGE ( 'NONE', *, *, #124, .F. ) ;
#156 = APPROVAL_DATE_TIME ( #154, #162 ) ;
#157 = EDGE_LOOP ( 'NONE', ( #134, #132 ) ) ;
#158 = ADVANCED_BREP_SHAPE_REPRESENTATION ( 'Web Model 14958_14958', ( #128, #146 ), #17 ) ;
#159 = APPROVAL ( #172, 'UNSPECIFIED' ) ;
#160 = EDGE_LOOP ( 'NONE', ( #45, #155 ) ) ;
#161 = DIRECTION ( 'NONE',  ( -1.000000000000000000, -0.0000000000000000000, -0.0000000000000000000 ) ) ;
#162 = APPROVAL ( #123, 'UNSPECIFIED' ) ;
#163 = VECTOR ( 'NONE', #89, 1000.000000000000000 ) ;
#164 = ADVANCED_FACE ( 'NONE', ( #42 ), #143, .F. ) ;
#165 = APPLICATION_CONTEXT ( 'configuration controlled 3d designs of mechanical parts and assemblies' ) ;
#166 = COORDINATED_UNIVERSAL_TIME_OFFSET ( 5, 0, .BEHIND. ) ;
#167 = DIRECTION ( 'NONE',  ( 1.000000000000000000, 0.0000000000000000000, 0.0000000000000000000 ) ) ;
#168 = CARTESIAN_POINT ( 'NONE',  ( 1.000000000000000000, 0.0000000000000000000, 0.0000000000000000000 ) ) ;
#169 = CIRCLE ( 'NONE', #57, 6.250000000000000000 ) ;
#170 = CC_DESIGN_DATE_AND_TIME_ASSIGNMENT ( #48, #72, ( #135 ) ) ;
#171 = DIRECTION ( 'NONE',  ( -1.000000000000000000, -0.0000000000000000000, -0.0000000000000000000 ) ) ;
#172 = APPROVAL_STATUS ( 'not_yet_approved' ) ;
#173 = ORIENTED_EDGE ( 'NONE', *, *, #118, .T. ) ;
#174 = CYLINDRICAL_SURFACE ( 'NONE', #86, 6.250000000000000000 ) ;
#175 = AXIS2_PLACEMENT_3D ( 'NONE', #103, #115, #141 ) ;
ENDSEC;
END-ISO-10303-21;
