ISO-10303-21;
HEADER;
FILE_DESCRIPTION (( 'STEP AP203' ),
    '1' );
FILE_NAME ('4942-E0W.STEP',
    '2015-11-16T21:55:51',
    ( 'admin' ),
    ( '' ),
    'SwSTEP 2.0',
    'SolidWorks 2014',
    '' );
FILE_SCHEMA (( 'CONFIG_CONTROL_DESIGN' ));
ENDSEC;

DATA;
#1 = PRODUCT_DEFINITION ( 'UNKNOWN', '', #91, #140 ) ;
#2 = ORGANIZATION ( 'UNSPECIFIED', 'UNSPECIFIED', '' ) ;
#3 = ORIENTED_EDGE ( 'NONE', *, *, #70, .F. ) ;
#4 = AXIS2_PLACEMENT_3D ( 'NONE', #301, #289, #71 ) ;
#5 = VERTEX_POINT ( 'NONE', #271 ) ;
#6 = PERSON_AND_ORGANIZATION ( #316, #2 ) ;
#7 = CLOSED_SHELL ( 'NONE', ( #129, #16, #181, #297, #101, #203, #228, #75, #327, #272 ) ) ;
#8 = AXIS2_PLACEMENT_3D ( 'NONE', #112, #59, #189 ) ;
#9 = LENGTH_MEASURE_WITH_UNIT ( LENGTH_MEASURE( 0.02539999999999999900 ), #165 );
#10 = ORIENTED_EDGE ( 'NONE', *, *, #284, .F. ) ;
#11 = ORIENTED_EDGE ( 'NONE', *, *, #121, .T. ) ;
#12 = ORIENTED_EDGE ( 'NONE', *, *, #224, .T. ) ;
#13 = DIRECTION ( 'NONE',  ( 0.0000000000000000000, 1.000000000000000000, 0.0000000000000000000 ) ) ;
#14 = APPROVAL ( #276, 'UNSPECIFIED' ) ;
#15 = CARTESIAN_POINT ( 'NONE',  ( 0.08887634460273509400, -0.4999999999999998300, 0.0000000000000000000 ) ) ;
#16 = ADVANCED_FACE ( 'NONE', ( #233 ), #290, .T. ) ;
#17 = APPLICATION_CONTEXT ( 'configuration controlled 3d designs of mechanical parts and assemblies' ) ;
#18 = CARTESIAN_POINT ( 'NONE',  ( 0.09583605701598910100, 0.4930402875867465100, 6.038002100437996300E-017 ) ) ;
#19 = APPROVAL_ROLE ( '' ) ;
#20 = DIRECTION ( 'NONE',  ( -1.000000000000000000, 4.814824860968089600E-032, -0.0000000000000000000 ) ) ;
#21 = CARTESIAN_POINT ( 'NONE',  ( 0.09583605701598910100, 1.446433227339392500E-017, 0.0000000000000000000 ) ) ;
#22 = MECHANICAL_CONTEXT ( 'NONE', #211, 'mechanical' ) ;
#23 = DIRECTION ( 'NONE',  ( 0.0000000000000000000, -1.000000000000000000, 0.0000000000000000000 ) ) ;
#24 = ORIENTED_EDGE ( 'NONE', *, *, #159, .T. ) ;
#25 = VERTEX_POINT ( 'NONE', #310 ) ;
#26 = AXIS2_PLACEMENT_3D ( 'NONE', #171, #193, #231 ) ;
#27 = APPROVAL_STATUS ( 'not_yet_approved' ) ;
#28 = AXIS2_PLACEMENT_3D ( 'NONE', #207, #138, #96 ) ;
#29 = CARTESIAN_POINT ( 'NONE',  ( -0.06255856127941959700, 1.446433227339393500E-017, 0.0000000000000000000 ) ) ;
#30 = APPROVAL_DATE_TIME ( #268, #14 ) ;
#31 = CIRCLE ( 'NONE', #65, 0.4930402875867465100 ) ;
#32 = EDGE_CURVE ( 'NONE', #5, #73, #282, .T. ) ;
#33 = ORIENTED_EDGE ( 'NONE', *, *, #324, .F. ) ;
#34 = DIRECTION ( 'NONE',  ( 0.0000000000000000000, -1.000000000000000000, 0.0000000000000000000 ) ) ;
#35 = CC_DESIGN_APPROVAL ( #14, ( #1 ) ) ;
#36 = VERTEX_POINT ( 'NONE', #123 ) ;
#37 = DIRECTION ( 'NONE',  ( 0.0000000000000000000, -1.000000000000000000, 6.982962677686266700E-015 ) ) ;
#38 = DIRECTION ( 'NONE',  ( 0.0000000000000000000, -0.0000000000000000000, -1.000000000000000000 ) ) ;
#39 = CARTESIAN_POINT ( 'NONE',  ( 11.73225552091500200, -0.02569212885544185800, 0.0000000000000000000 ) ) ;
#40 = AXIS2_PLACEMENT_3D ( 'NONE', #125, #216, #118 ) ;
#41 = SHAPE_DEFINITION_REPRESENTATION ( #147, #66 ) ;
#42 = AXIS2_PLACEMENT_3D ( 'NONE', #258, #103, #23 ) ;
#43 = CARTESIAN_POINT ( 'NONE',  ( -0.07874015748031496000, -0.4999999999999997800, 0.0000000000000000000 ) ) ;
#44 = DATE_AND_TIME ( #199, #330 ) ;
#45 = ORIENTED_EDGE ( 'NONE', *, *, #107, .F. ) ;
#46 = CARTESIAN_POINT ( 'NONE',  ( -0.06951827369267332700, -0.4930402875867433400, 0.0000000000000000000 ) ) ;
#47 = ORIENTED_EDGE ( 'NONE', *, *, #141, .F. ) ;
#48 = CARTESIAN_POINT ( 'NONE',  ( 0.09583605701598910100, 1.446433227339392500E-017, 0.0000000000000000000 ) ) ;
#49 = EDGE_CURVE ( 'NONE', #25, #204, #252, .T. ) ;
#50 = FACE_OUTER_BOUND ( 'NONE', #210, .T. ) ;
#51 = CARTESIAN_POINT ( 'NONE',  ( 7.196850393700787900, -6.930314839251707700E-031, 2.419706493355498700E-045 ) ) ;
#52 = DIRECTION ( 'NONE',  ( 1.000000000000000000, -4.814824860968089600E-032, 0.0000000000000000000 ) ) ;
#53 = DIRECTION ( 'NONE',  ( -1.000000000000000000, 4.814824860968089100E-032, -0.0000000000000000000 ) ) ;
#54 = ORIENTED_EDGE ( 'NONE', *, *, #304, .F. ) ;
#55 = CC_DESIGN_PERSON_AND_ORGANIZATION_ASSIGNMENT ( #227, #173, ( #1 ) ) ;
#56 = ORIENTED_EDGE ( 'NONE', *, *, #208, .T. ) ;
#57 = DIRECTION ( 'NONE',  ( 3.362174230373613300E-046, 6.982962677686266700E-015, 1.000000000000000000 ) ) ;
#58 = CARTESIAN_POINT ( 'NONE',  ( -0.06255856127941959700, 0.4999999999999997200, 0.0000000000000000000 ) ) ;
#59 = DIRECTION ( 'NONE',  ( -1.000000000000000000, 4.814824860968089600E-032, -0.0000000000000000000 ) ) ;
#60 = COORDINATED_UNIVERSAL_TIME_OFFSET ( 5, 0, .BEHIND. ) ;
#61 = TOROIDAL_SURFACE ( 'NONE', #26, 0.02569212885544187200, 11.81102362204724400 ) ;
#62 = AXIS2_PLACEMENT_3D ( 'NONE', #148, #223, #34 ) ;
#63 = DIRECTION ( 'NONE',  ( -1.000000000000000000, 0.0000000000000000000, 0.0000000000000000000 ) ) ;
#64 = COORDINATED_UNIVERSAL_TIME_OFFSET ( 5, 0, .BEHIND. ) ;
#65 = AXIS2_PLACEMENT_3D ( 'NONE', #226, #206, #182 ) ;
#66 = ADVANCED_BREP_SHAPE_REPRESENTATION ( '4942-E0W', ( #94, #295 ), #235 ) ;
#67 = DIRECTION ( 'NONE',  ( 0.0000000000000000000, 1.000000000000000000, 0.0000000000000000000 ) ) ;
#68 = CARTESIAN_POINT ( 'NONE',  ( 7.196850393700787900, -6.930314839251707700E-031, 2.419706493355498700E-045 ) ) ;
#69 = DIRECTION ( 'NONE',  ( -1.000000000000000000, 4.814824860968089600E-032, -0.0000000000000000000 ) ) ;
#70 = EDGE_CURVE ( 'NONE', #256, #204, #274, .T. ) ;
#71 = DIRECTION ( 'NONE',  ( 0.0000000000000000000, -1.000000000000000000, 0.0000000000000000000 ) ) ;
#72 = VECTOR ( 'NONE', #196, 39.37007874015748900 ) ;
#73 = VERTEX_POINT ( 'NONE', #15 ) ;
#74 = CC_DESIGN_DATE_AND_TIME_ASSIGNMENT ( #44, #188, ( #1 ) ) ;
#75 = ADVANCED_FACE ( 'NONE', ( #214 ), #132, .T. ) ;
#76 = APPROVAL_PERSON_ORGANIZATION ( #240, #14, #220 ) ;
#77 = EDGE_LOOP ( 'NONE', ( #154, #160, #241, #3 ) ) ;
#78 = CARTESIAN_POINT ( 'NONE',  ( -0.07874015748031496000, -1.446433227339392500E-017, 1.010038924227627800E-031 ) ) ;
#79 = AXIS2_PLACEMENT_3D ( 'NONE', #21, #69, #232 ) ;
#80 = PERSON_AND_ORGANIZATION_ROLE ( 'design_owner' ) ;
#81 = COORDINATED_UNIVERSAL_TIME_OFFSET ( 5, 0, .BEHIND. ) ;
#82 = DIRECTION ( 'NONE',  ( -0.7071067811865822100, -0.7071067811865128200, 0.0000000000000000000 ) ) ;
#83 = CARTESIAN_POINT ( 'NONE',  ( -0.06255856127941959700, 1.446433227339393500E-017, 0.0000000000000000000 ) ) ;
#84 = AXIS2_PLACEMENT_3D ( 'NONE', #51, #225, #325 ) ;
#85 = LINE ( 'NONE', #293, #197 ) ;
#86 = APPROVAL_STATUS ( 'not_yet_approved' ) ;
#87 = EDGE_CURVE ( 'NONE', #273, #36, #319, .T. ) ;
#88 = TOROIDAL_SURFACE ( 'NONE', #116, 0.02569212885544187200, 11.81102362204724400 ) ;
#89 = ORIENTED_EDGE ( 'NONE', *, *, #269, .F. ) ;
#90 = DIRECTION ( 'NONE',  ( 0.0000000000000000000, 1.000000000000000000, -6.982962677686267500E-015 ) ) ;
#91 = PRODUCT_DEFINITION_FORMATION_WITH_SPECIFIED_SOURCE ( 'ANY', '', #169, .NOT_KNOWN. ) ;
#92 = ORIENTED_EDGE ( 'NONE', *, *, #269, .T. ) ;
#93 = CARTESIAN_POINT ( 'NONE',  ( 0.09583605701598910100, -0.4930402875867465100, 0.0000000000000000000 ) ) ;
#94 = MANIFOLD_SOLID_BREP ( '4942-001-1-solid1', #7 ) ;
#95 = CIRCLE ( 'NONE', #4, 0.4930402875867465100 ) ;
#96 = DIRECTION ( 'NONE',  ( 0.0000000000000000000, -1.000000000000000000, 0.0000000000000000000 ) ) ;
#97 = AXIS2_PLACEMENT_3D ( 'NONE', #29, #163, #13 ) ;
#98 = AXIS2_PLACEMENT_3D ( 'NONE', #108, #20, #312 ) ;
#99 = DIRECTION ( 'NONE',  ( 0.0000000000000000000, -1.000000000000000000, 6.982962677686266700E-015 ) ) ;
#100 = DIRECTION ( 'NONE',  ( 3.362174230373613300E-046, 6.982962677686266700E-015, 1.000000000000000000 ) ) ;
#101 = ADVANCED_FACE ( 'NONE', ( #307 ), #88, .T. ) ;
#102 = EDGE_LOOP ( 'NONE', ( #56, #126, #257, #105 ) ) ;
#103 = DIRECTION ( 'NONE',  ( -1.000000000000000000, 4.814824860968089600E-032, -0.0000000000000000000 ) ) ;
#104 = LOCAL_TIME ( 16, 55, 51.00000000000000000, #60 ) ;
#105 = ORIENTED_EDGE ( 'NONE', *, *, #243, .F. ) ;
#106 = SECURITY_CLASSIFICATION_LEVEL ( 'unclassified' ) ;
#107 = EDGE_CURVE ( 'NONE', #273, #5, #152, .T. ) ;
#108 = CARTESIAN_POINT ( 'NONE',  ( -0.07874015748031496000, 1.446433227339393500E-017, 0.0000000000000000000 ) ) ;
#109 = APPROVAL ( #27, 'UNSPECIFIED' ) ;
#110 = CARTESIAN_POINT ( 'NONE',  ( -0.06255856127941959700, 1.446433227339393500E-017, 0.0000000000000000000 ) ) ;
#111 = DATE_AND_TIME ( #195, #104 ) ;
#112 = CARTESIAN_POINT ( 'NONE',  ( 0.09583605701598910100, 1.446433227339392500E-017, 0.0000000000000000000 ) ) ;
#113 =( NAMED_UNIT ( * ) SI_UNIT ( $, .STERADIAN. ) SOLID_ANGLE_UNIT ( ) );
#114 = VECTOR ( 'NONE', #264, 39.37007874015748900 ) ;
#115 = AXIS2_PLACEMENT_3D ( 'NONE', #266, #130, #245 ) ;
#116 = AXIS2_PLACEMENT_3D ( 'NONE', #176, #308, #281 ) ;
#117 = EDGE_LOOP ( 'NONE', ( #45, #11, #234, #186 ) ) ;
#118 = DIRECTION ( 'NONE',  ( 0.0000000000000000000, -1.000000000000000000, 0.0000000000000000000 ) ) ;
#119 = SPHERICAL_SURFACE ( 'NONE', #323, 7.118110236220473100 ) ;
#120 = CONICAL_SURFACE ( 'NONE', #218, 0.4930402875867465100, 0.7853981633973992100 ) ;
#121 = EDGE_CURVE ( 'NONE', #273, #296, #31, .T. ) ;
#122 = CIRCLE ( 'NONE', #135, 11.81102362204724400 ) ;
#123 = CARTESIAN_POINT ( 'NONE',  ( 0.07874015748031502900, -4.358585458382709200E-016, 3.043583958339255300E-030 ) ) ;
#124 = DIRECTION ( 'NONE',  ( 0.0000000000000000000, -1.000000000000000000, 0.0000000000000000000 ) ) ;
#125 = CARTESIAN_POINT ( 'NONE',  ( 0.08887634460273509400, 1.446433227339392500E-017, 0.0000000000000000000 ) ) ;
#126 = ORIENTED_EDGE ( 'NONE', *, *, #255, .T. ) ;
#127 = ORIENTED_EDGE ( 'NONE', *, *, #121, .F. ) ;
#128 = CC_DESIGN_APPROVAL ( #109, ( #91 ) ) ;
#129 = ADVANCED_FACE ( 'NONE', ( #209 ), #119, .F. ) ;
#130 = DIRECTION ( 'NONE',  ( -5.896459854439671100E-048, -1.224646799147353200E-016, 1.000000000000000000 ) ) ;
#131 = DIMENSIONAL_EXPONENTS ( 1.000000000000000000, 0.0000000000000000000, 0.0000000000000000000, 0.0000000000000000000, 0.0000000000000000000, 0.0000000000000000000, 0.0000000000000000000 ) ;
#132 = CYLINDRICAL_SURFACE ( 'NONE', #98, 0.4999999999999997800 ) ;
#133 = APPROVAL_ROLE ( '' ) ;
#134 = FACE_OUTER_BOUND ( 'NONE', #102, .T. ) ;
#135 = AXIS2_PLACEMENT_3D ( 'NONE', #39, #38, #63 ) ;
#136 = COORDINATED_UNIVERSAL_TIME_OFFSET ( 5, 0, .BEHIND. ) ;
#137 = ORIENTED_EDGE ( 'NONE', *, *, #141, .T. ) ;
#138 = DIRECTION ( 'NONE',  ( -1.000000000000000000, 4.814824860968089600E-032, -0.0000000000000000000 ) ) ;
#139 = AXIS2_PLACEMENT_3D ( 'NONE', #328, #180, #90 ) ;
#140 = DESIGN_CONTEXT ( 'detailed design', #17, 'design' ) ;
#141 = EDGE_CURVE ( 'NONE', #296, #36, #187, .T. ) ;
#142 = VECTOR ( 'NONE', #294, 39.37007874015748100 ) ;
#143 = PERSON_AND_ORGANIZATION ( #316, #2 ) ;
#144 = EDGE_LOOP ( 'NONE', ( #283, #149, #247, #33 ) ) ;
#145 = DIRECTION ( 'NONE',  ( 0.0000000000000000000, 0.0000000000000000000, 1.000000000000000000 ) ) ;
#146 = CC_DESIGN_PERSON_AND_ORGANIZATION_ASSIGNMENT ( #286, #201, ( #91 ) ) ;
#147 = PRODUCT_DEFINITION_SHAPE ( 'NONE', 'NONE',  #1 ) ;
#148 = CARTESIAN_POINT ( 'NONE',  ( -0.07874015748031496000, 1.446433227339393500E-017, 0.0000000000000000000 ) ) ;
#149 = ORIENTED_EDGE ( 'NONE', *, *, #32, .T. ) ;
#150 =( NAMED_UNIT ( * ) PLANE_ANGLE_UNIT ( ) SI_UNIT ( $, .RADIAN. ) );
#151 = VECTOR ( 'NONE', #260, 39.37007874015748100 ) ;
#152 = LINE ( 'NONE', #18, #142 ) ;
#153 = PERSON_AND_ORGANIZATION ( #316, #2 ) ;
#154 = ORIENTED_EDGE ( 'NONE', *, *, #159, .F. ) ;
#155 = AXIS2_PLACEMENT_3D ( 'NONE', #68, #57, #37 ) ;
#156 = CARTESIAN_POINT ( 'NONE',  ( 0.0000000000000000000, 0.0000000000000000000, 0.0000000000000000000 ) ) ;
#157 = ORIENTED_EDGE ( 'NONE', *, *, #304, .T. ) ;
#158 = FACE_OUTER_BOUND ( 'NONE', #288, .T. ) ;
#159 = EDGE_CURVE ( 'NONE', #292, #256, #95, .T. ) ;
#160 = ORIENTED_EDGE ( 'NONE', *, *, #177, .T. ) ;
#161 = UNCERTAINTY_MEASURE_WITH_UNIT (LENGTH_MEASURE( 1.000000000000000100E-005 ), #321, 'distance_accuracy_value', 'NONE');
#162 = CC_DESIGN_PERSON_AND_ORGANIZATION_ASSIGNMENT ( #143, #238, ( #91 ) ) ;
#163 = DIRECTION ( 'NONE',  ( 1.000000000000000000, -4.814824860968089600E-032, 0.0000000000000000000 ) ) ;
#164 = CIRCLE ( 'NONE', #115, 11.81102362204724400 ) ;
#165 =( LENGTH_UNIT ( ) NAMED_UNIT ( * ) SI_UNIT ( $, .METRE. ) );
#166 = CYLINDRICAL_SURFACE ( 'NONE', #62, 0.4999999999999997800 ) ;
#167 = LOCAL_TIME ( 16, 55, 51.00000000000000000, #136 ) ;
#168 = AXIS2_PLACEMENT_3D ( 'NONE', #110, #52, #67 ) ;
#169 = PRODUCT ( '4942-E0W', '4942-E0W', '', ( #22 ) ) ;
#170 = CC_DESIGN_PERSON_AND_ORGANIZATION_ASSIGNMENT ( #153, #313, ( #179 ) ) ;
#171 = CARTESIAN_POINT ( 'NONE',  ( 11.73225552091500200, 1.280553747030123400E-017, 0.0000000000000000000 ) ) ;
#172 = ORIENTED_EDGE ( 'NONE', *, *, #177, .F. ) ;
#173 = PERSON_AND_ORGANIZATION_ROLE ( 'creator' ) ;
#174 = CARTESIAN_POINT ( 'NONE',  ( -0.07874015748031496000, 0.4999999999999997800, 6.123233995736763600E-017 ) ) ;
#175 = PERSON_AND_ORGANIZATION ( #316, #2 ) ;
#176 = CARTESIAN_POINT ( 'NONE',  ( 11.73225552091500200, 1.280553747030123400E-017, 0.0000000000000000000 ) ) ;
#177 = EDGE_CURVE ( 'NONE', #292, #25, #298, .T. ) ;
#178 = FACE_OUTER_BOUND ( 'NONE', #267, .T. ) ;
#179 = SECURITY_CLASSIFICATION ( '', '', #106 ) ;
#180 = DIRECTION ( 'NONE',  ( -3.362174230373613700E-046, -6.982962677686266700E-015, -1.000000000000000000 ) ) ;
#181 = ADVANCED_FACE ( 'NONE', ( #134 ), #166, .T. ) ;
#182 = DIRECTION ( 'NONE',  ( 0.0000000000000000000, -1.000000000000000000, 0.0000000000000000000 ) ) ;
#183 = AXIS2_PLACEMENT_3D ( 'NONE', #261, #287, #291 ) ;
#184 = CC_DESIGN_DATE_AND_TIME_ASSIGNMENT ( #253, #242, ( #179 ) ) ;
#185 = APPROVAL_DATE_TIME ( #262, #109 ) ;
#186 = ORIENTED_EDGE ( 'NONE', *, *, #32, .F. ) ;
#187 = CIRCLE ( 'NONE', #139, 7.118110236220473100 ) ;
#188 = DATE_TIME_ROLE ( 'creation_date' ) ;
#189 = DIRECTION ( 'NONE',  ( 0.0000000000000000000, -1.000000000000000000, 0.0000000000000000000 ) ) ;
#190 = CONICAL_SURFACE ( 'NONE', #168, 0.4999999999999997200, 0.7853981633974409500 ) ;
#191 = EDGE_CURVE ( 'NONE', #296, #73, #85, .T. ) ;
#192 = CARTESIAN_POINT ( 'NONE',  ( -0.06255856127941959700, 0.4999999999999997200, 0.0000000000000000000 ) ) ;
#193 = DIRECTION ( 'NONE',  ( -1.000000000000000000, 4.814824860968089600E-032, -0.0000000000000000000 ) ) ;
#194 = ORIENTED_EDGE ( 'NONE', *, *, #208, .F. ) ;
#195 = CALENDAR_DATE ( 2015, 16, 11 ) ;
#196 = DIRECTION ( 'NONE',  ( 0.7071067811865526800, 0.7071067811865422400, 0.0000000000000000000 ) ) ;
#197 = VECTOR ( 'NONE', #82, 39.37007874015748100 ) ;
#198 = AXIS2_PLACEMENT_3D ( 'NONE', #83, #259, #221 ) ;
#199 = CALENDAR_DATE ( 2015, 16, 11 ) ;
#200 = APPROVAL ( #86, 'UNSPECIFIED' ) ;
#201 = PERSON_AND_ORGANIZATION_ROLE ( 'creator' ) ;
#202 = CARTESIAN_POINT ( 'NONE',  ( 7.196850393700787900, -6.930314839251707700E-031, 2.419706493355498700E-045 ) ) ;
#203 = ADVANCED_FACE ( 'NONE', ( #158 ), #61, .T. ) ;
#204 = VERTEX_POINT ( 'NONE', #58 ) ;
#205 = LINE ( 'NONE', #43, #244 ) ;
#206 = DIRECTION ( 'NONE',  ( -1.000000000000000000, 4.814824860968089600E-032, -0.0000000000000000000 ) ) ;
#207 = CARTESIAN_POINT ( 'NONE',  ( 0.08887634460273509400, 1.446433227339392500E-017, 0.0000000000000000000 ) ) ;
#208 = EDGE_CURVE ( 'NONE', #73, #5, #329, .T. ) ;
#209 = FACE_OUTER_BOUND ( 'NONE', #278, .T. ) ;
#210 = EDGE_LOOP ( 'NONE', ( #251, #300, #137 ) ) ;
#211 = APPLICATION_CONTEXT ( 'configuration controlled 3d designs of mechanical parts and assemblies' ) ;
#212 = APPROVAL_PERSON_ORGANIZATION ( #175, #200, #133 ) ;
#213 = ORIENTED_EDGE ( 'NONE', *, *, #107, .T. ) ;
#214 = FACE_OUTER_BOUND ( 'NONE', #144, .T. ) ;
#215 = CALENDAR_DATE ( 2015, 16, 11 ) ;
#216 = DIRECTION ( 'NONE',  ( -1.000000000000000000, 4.814824860968089600E-032, -0.0000000000000000000 ) ) ;
#217 = EDGE_LOOP ( 'NONE', ( #12, #213, #194, #275 ) ) ;
#218 = AXIS2_PLACEMENT_3D ( 'NONE', #48, #303, #124 ) ;
#219 = CC_DESIGN_APPROVAL ( #200, ( #179 ) ) ;
#220 = APPROVAL_ROLE ( '' ) ;
#221 = DIRECTION ( 'NONE',  ( 0.0000000000000000000, -1.000000000000000000, 0.0000000000000000000 ) ) ;
#222 = FACE_OUTER_BOUND ( 'NONE', #77, .T. ) ;
#223 = DIRECTION ( 'NONE',  ( -1.000000000000000000, 4.814824860968089600E-032, -0.0000000000000000000 ) ) ;
#224 = EDGE_CURVE ( 'NONE', #296, #273, #311, .T. ) ;
#225 = DIRECTION ( 'NONE',  ( 3.303209631829217000E-046, 6.860497997771531600E-015, 1.000000000000000000 ) ) ;
#226 = CARTESIAN_POINT ( 'NONE',  ( 0.09583605701598910100, 1.446433227339392500E-017, 0.0000000000000000000 ) ) ;
#227 = PERSON_AND_ORGANIZATION ( #316, #2 ) ;
#228 = ADVANCED_FACE ( 'NONE', ( #178 ), #280, .T. ) ;
#229 = ORIENTED_EDGE ( 'NONE', *, *, #324, .T. ) ;
#230 = FACE_OUTER_BOUND ( 'NONE', #117, .T. ) ;
#231 = DIRECTION ( 'NONE',  ( -4.814824860968089600E-032, -1.000000000000000000, 0.0000000000000000000 ) ) ;
#232 = DIRECTION ( 'NONE',  ( 0.0000000000000000000, -1.000000000000000000, 0.0000000000000000000 ) ) ;
#233 = FACE_OUTER_BOUND ( 'NONE', #217, .T. ) ;
#234 = ORIENTED_EDGE ( 'NONE', *, *, #191, .T. ) ;
#235 =( GEOMETRIC_REPRESENTATION_CONTEXT ( 3 ) GLOBAL_UNCERTAINTY_ASSIGNED_CONTEXT ( ( #161 ) ) GLOBAL_UNIT_ASSIGNED_CONTEXT ( ( #321, #150, #113 ) ) REPRESENTATION_CONTEXT ( 'NONE', 'WORKASPACE' ) );
#236 = CC_DESIGN_SECURITY_CLASSIFICATION ( #179, ( #91 ) ) ;
#237 = VERTEX_POINT ( 'NONE', #78 ) ;
#238 = PERSON_AND_ORGANIZATION_ROLE ( 'design_supplier' ) ;
#239 = CARTESIAN_POINT ( 'NONE',  ( -0.06255856127941959700, -0.4999999999999997200, 6.123233995736763600E-017 ) ) ;
#240 = PERSON_AND_ORGANIZATION ( #316, #2 ) ;
#241 = ORIENTED_EDGE ( 'NONE', *, *, #49, .T. ) ;
#242 = DATE_TIME_ROLE ( 'classification_date' ) ;
#243 = EDGE_CURVE ( 'NONE', #73, #25, #205, .T. ) ;
#244 = VECTOR ( 'NONE', #53, 39.37007874015748100 ) ;
#245 = DIRECTION ( 'NONE',  ( 0.0000000000000000000, -1.000000000000000000, -1.224646799147353200E-016 ) ) ;
#246 = ORIENTED_EDGE ( 'NONE', *, *, #70, .T. ) ;
#247 = ORIENTED_EDGE ( 'NONE', *, *, #243, .T. ) ;
#248 = APPROVAL_DATE_TIME ( #111, #200 ) ;
#249 = CIRCLE ( 'NONE', #198, 0.4999999999999997200 ) ;
#250 = PRODUCT_RELATED_PRODUCT_CATEGORY ( 'detail', '', ( #169 ) ) ;
#251 = ORIENTED_EDGE ( 'NONE', *, *, #87, .F. ) ;
#252 = CIRCLE ( 'NONE', #42, 0.4999999999999997200 ) ;
#253 = DATE_AND_TIME ( #309, #167 ) ;
#254 = LINE ( 'NONE', #174, #151 ) ;
#255 = EDGE_CURVE ( 'NONE', #5, #204, #254, .T. ) ;
#256 = VERTEX_POINT ( 'NONE', #318 ) ;
#257 = ORIENTED_EDGE ( 'NONE', *, *, #49, .F. ) ;
#258 = CARTESIAN_POINT ( 'NONE',  ( -0.06255856127941959700, 1.446433227339393500E-017, 0.0000000000000000000 ) ) ;
#259 = DIRECTION ( 'NONE',  ( -1.000000000000000000, 4.814824860968089600E-032, -0.0000000000000000000 ) ) ;
#260 = DIRECTION ( 'NONE',  ( -1.000000000000000000, 4.814824860968089100E-032, -0.0000000000000000000 ) ) ;
#261 = CARTESIAN_POINT ( 'NONE',  ( -0.06951827369267288300, 1.446433227339393500E-017, 0.0000000000000000000 ) ) ;
#262 = DATE_AND_TIME ( #215, #305 ) ;
#263 = COORDINATED_UNIVERSAL_TIME_OFFSET ( 5, 0, .BEHIND. ) ;
#264 = DIRECTION ( 'NONE',  ( 0.7071067811865526800, -0.7071067811865422400, 8.659560562354868800E-017 ) ) ;
#265 = EDGE_LOOP ( 'NONE', ( #24, #92, #10 ) ) ;
#266 = CARTESIAN_POINT ( 'NONE',  ( 11.73225552091500200, 0.02569212885544188600, 3.146378336609824100E-018 ) ) ;
#267 = EDGE_LOOP ( 'NONE', ( #172, #54, #246, #229 ) ) ;
#268 = DATE_AND_TIME ( #299, #320 ) ;
#269 = EDGE_CURVE ( 'NONE', #256, #237, #164, .T. ) ;
#270 = ORIENTED_EDGE ( 'NONE', *, *, #284, .T. ) ;
#271 = CARTESIAN_POINT ( 'NONE',  ( 0.08887634460273509400, 0.4999999999999999400, 6.123233995736764800E-017 ) ) ;
#272 = ADVANCED_FACE ( 'NONE', ( #50 ), #322, .F. ) ;
#273 = VERTEX_POINT ( 'NONE', #285 ) ;
#274 = LINE ( 'NONE', #192, #72 ) ;
#275 = ORIENTED_EDGE ( 'NONE', *, *, #191, .F. ) ;
#276 = APPROVAL_STATUS ( 'not_yet_approved' ) ;
#277 = PERSON_AND_ORGANIZATION ( #316, #2 ) ;
#278 = EDGE_LOOP ( 'NONE', ( #127, #306, #47 ) ) ;
#279 = APPLICATION_PROTOCOL_DEFINITION ( 'international standard', 'config_control_design', 1994, #211 ) ;
#280 = CONICAL_SURFACE ( 'NONE', #97, 0.4999999999999997200, 0.7853981633974409500 ) ;
#281 = DIRECTION ( 'NONE',  ( -4.814824860968089600E-032, -1.000000000000000000, 0.0000000000000000000 ) ) ;
#282 = CIRCLE ( 'NONE', #28, 0.4999999999999998300 ) ;
#283 = ORIENTED_EDGE ( 'NONE', *, *, #255, .F. ) ;
#284 = EDGE_CURVE ( 'NONE', #292, #237, #122, .T. ) ;
#285 = CARTESIAN_POINT ( 'NONE',  ( 0.09583605701598910100, 0.4930402875867465100, 6.080618048087380000E-017 ) ) ;
#286 = PERSON_AND_ORGANIZATION ( #316, #2 ) ;
#287 = DIRECTION ( 'NONE',  ( -1.000000000000000000, 4.814824860968089600E-032, -0.0000000000000000000 ) ) ;
#288 = EDGE_LOOP ( 'NONE', ( #89, #157, #270 ) ) ;
#289 = DIRECTION ( 'NONE',  ( -1.000000000000000000, 4.814824860968089600E-032, -0.0000000000000000000 ) ) ;
#290 = CONICAL_SURFACE ( 'NONE', #8, 0.4930402875867465100, 0.7853981633973992100 ) ;
#291 = DIRECTION ( 'NONE',  ( 0.0000000000000000000, -1.000000000000000000, 0.0000000000000000000 ) ) ;
#292 = VERTEX_POINT ( 'NONE', #46 ) ;
#293 = CARTESIAN_POINT ( 'NONE',  ( 0.09583605701598910100, -0.4930402875867465100, 0.0000000000000000000 ) ) ;
#294 = DIRECTION ( 'NONE',  ( -0.7071067811865822100, 0.7071067811865128200, 8.659560562354507600E-017 ) ) ;
#295 = AXIS2_PLACEMENT_3D ( 'NONE', #156, #145, #314 ) ;
#296 = VERTEX_POINT ( 'NONE', #93 ) ;
#297 = ADVANCED_FACE ( 'NONE', ( #222 ), #190, .T. ) ;
#298 = LINE ( 'NONE', #239, #114 ) ;
#299 = CALENDAR_DATE ( 2015, 16, 11 ) ;
#300 = ORIENTED_EDGE ( 'NONE', *, *, #224, .F. ) ;
#301 = CARTESIAN_POINT ( 'NONE',  ( -0.06951827369267288300, 1.446433227339393500E-017, 0.0000000000000000000 ) ) ;
#302 = CIRCLE ( 'NONE', #183, 0.4930402875867465100 ) ;
#303 = DIRECTION ( 'NONE',  ( -1.000000000000000000, 4.814824860968089600E-032, -0.0000000000000000000 ) ) ;
#304 = EDGE_CURVE ( 'NONE', #256, #292, #302, .T. ) ;
#305 = LOCAL_TIME ( 16, 55, 51.00000000000000000, #81 ) ;
#306 = ORIENTED_EDGE ( 'NONE', *, *, #87, .T. ) ;
#307 = FACE_OUTER_BOUND ( 'NONE', #265, .T. ) ;
#308 = DIRECTION ( 'NONE',  ( -1.000000000000000000, 4.814824860968089600E-032, -0.0000000000000000000 ) ) ;
#309 = CALENDAR_DATE ( 2015, 16, 11 ) ;
#310 = CARTESIAN_POINT ( 'NONE',  ( -0.06255856127941959700, -0.4999999999999997200, 6.123233995736763600E-017 ) ) ;
#311 = CIRCLE ( 'NONE', #79, 0.4930402875867465100 ) ;
#312 = DIRECTION ( 'NONE',  ( 0.0000000000000000000, -1.000000000000000000, 0.0000000000000000000 ) ) ;
#313 = PERSON_AND_ORGANIZATION_ROLE ( 'classification_officer' ) ;
#314 = DIRECTION ( 'NONE',  ( 1.000000000000000000, 0.0000000000000000000, 0.0000000000000000000 ) ) ;
#315 = CC_DESIGN_PERSON_AND_ORGANIZATION_ASSIGNMENT ( #277, #80, ( #169 ) ) ;
#316 = PERSON ( 'UNSPECIFIED', 'UNSPECIFIED', 'UNSPECIFIED', ('UNSPECIFIED'), ('UNSPECIFIED'), ('UNSPECIFIED') ) ;
#317 = APPLICATION_PROTOCOL_DEFINITION ( 'international standard', 'config_control_design', 1994, #17 ) ;
#318 = CARTESIAN_POINT ( 'NONE',  ( -0.06951827369267332700, 0.4930402875867433400, 6.038002100437956900E-017 ) ) ;
#319 = CIRCLE ( 'NONE', #84, 7.118110236220473100 ) ;
#320 = LOCAL_TIME ( 16, 55, 51.00000000000000000, #263 ) ;
#321 =( CONVERSION_BASED_UNIT ( 'INCH', #9 ) LENGTH_UNIT ( ) NAMED_UNIT ( #131 ) );
#322 = SPHERICAL_SURFACE ( 'NONE', #155, 7.118110236220473100 ) ;
#323 = AXIS2_PLACEMENT_3D ( 'NONE', #202, #100, #99 ) ;
#324 = EDGE_CURVE ( 'NONE', #204, #25, #249, .T. ) ;
#325 = DIRECTION ( 'NONE',  ( 0.0000000000000000000, -1.000000000000000000, 6.860497997771531600E-015 ) ) ;
#326 = APPROVAL_PERSON_ORGANIZATION ( #6, #109, #19 ) ;
#327 = ADVANCED_FACE ( 'NONE', ( #230 ), #120, .T. ) ;
#328 = CARTESIAN_POINT ( 'NONE',  ( 7.196850393700787900, -6.930314839251707700E-031, 2.419706493355498700E-045 ) ) ;
#329 = CIRCLE ( 'NONE', #40, 0.4999999999999998300 ) ;
#330 = LOCAL_TIME ( 16, 55, 51.00000000000000000, #64 ) ;
ENDSEC;
END-ISO-10303-21;
