ISO-10303-21;
HEADER;
FILE_DESCRIPTION (( 'STEP AP203' ),
    '1' );
FILE_NAME ('Web Model 43848_49573.step',
    '2018-03-12T20:51:27',
    ( '' ),
    ( '' ),
    'SwSTEP 2.0',
    'SolidWorks 2016',
    '' );
FILE_SCHEMA (( 'CONFIG_CONTROL_DESIGN' ));
ENDSEC;

DATA;
#1 = CARTESIAN_POINT ( 'NONE',  ( 4.750000000000000000, 12.49999999999999300, 12.50000000000000000 ) ) ;
#2 = CARTESIAN_POINT ( 'NONE',  ( 4.750000000000000000, 12.49999999999999300, 12.50000000000000000 ) ) ;
#3 = EDGE_LOOP ( 'NONE', ( #99, #155, #86, #221 ) ) ;
#4 = PERSON_AND_ORGANIZATION_ROLE ( 'creator' ) ;
#5 = PERSON ( 'UNSPECIFIED', 'UNSPECIFIED', 'UNSPECIFIED', ('UNSPECIFIED'), ('UNSPECIFIED'), ('UNSPECIFIED') ) ;
#6 = ORIENTED_EDGE ( 'NONE', *, *, #104, .T. ) ;
#7 = CC_DESIGN_DATE_AND_TIME_ASSIGNMENT ( #125, #35, ( #149 ) ) ;
#8 = EDGE_CURVE ( 'NONE', #159, #21, #49, .T. ) ;
#9 = CARTESIAN_POINT ( 'NONE',  ( 4.750000000000000000, 12.50000000000000000, -12.50000000000000000 ) ) ;
#10 = LOCAL_TIME ( 16, 51, 27.00000000000000000, #174 ) ;
#11 = VERTEX_POINT ( 'NONE', #195 ) ;
#12 = VECTOR ( 'NONE', #232, 1000.000000000000000 ) ;
#13 =( NAMED_UNIT ( * ) PLANE_ANGLE_UNIT ( ) SI_UNIT ( $, .RADIAN. ) );
#14 = APPROVAL ( #76, 'UNSPECIFIED' ) ;
#15 = CARTESIAN_POINT ( 'NONE',  ( -4.750000000000000000, -12.50000000000000000, -12.50000000000000000 ) ) ;
#16 = DIRECTION ( 'NONE',  ( 1.000000000000000000, 0.0000000000000000000, 0.0000000000000000000 ) ) ;
#17 = DIRECTION ( 'NONE',  ( -0.0000000000000000000, -2.775557561562891400E-016, 1.000000000000000000 ) ) ;
#18 = AXIS2_PLACEMENT_3D ( 'NONE', #52, #87, #107 ) ;
#19 = PERSON_AND_ORGANIZATION ( #5, #66 ) ;
#20 = ORIENTED_EDGE ( 'NONE', *, *, #206, .T. ) ;
#21 = VERTEX_POINT ( 'NONE', #120 ) ;
#22 = LINE ( 'NONE', #142, #197 ) ;
#23 = LOCAL_TIME ( 16, 51, 27.00000000000000000, #63 ) ;
#24 = VECTOR ( 'NONE', #146, 1000.000000000000000 ) ;
#25 = CC_DESIGN_APPROVAL ( #14, ( #226 ) ) ;
#26 = VECTOR ( 'NONE', #102, 1000.000000000000000 ) ;
#27 = DIRECTION ( 'NONE',  ( 0.0000000000000000000, 0.0000000000000000000, -1.000000000000000000 ) ) ;
#28 = APPROVAL_PERSON_ORGANIZATION ( #34, #62, #187 ) ;
#29 = CARTESIAN_POINT ( 'NONE',  ( 4.750000000000000000, -12.50000000000000000, -12.50000000000000000 ) ) ;
#30 = FACE_OUTER_BOUND ( 'NONE', #132, .T. ) ;
#31 = CARTESIAN_POINT ( 'NONE',  ( 4.750000000000000000, 0.0000000000000000000, 0.0000000000000000000 ) ) ;
#32 = CARTESIAN_POINT ( 'NONE',  ( -4.750000000000000000, 0.0000000000000000000, 0.0000000000000000000 ) ) ;
#33 = CC_DESIGN_PERSON_AND_ORGANIZATION_ASSIGNMENT ( #126, #222, ( #226 ) ) ;
#34 = PERSON_AND_ORGANIZATION ( #5, #66 ) ;
#35 = DATE_TIME_ROLE ( 'classification_date' ) ;
#36 = VECTOR ( 'NONE', #184, 1000.000000000000000 ) ;
#37 =( GEOMETRIC_REPRESENTATION_CONTEXT ( 3 ) GLOBAL_UNCERTAINTY_ASSIGNED_CONTEXT ( ( #176 ) ) GLOBAL_UNIT_ASSIGNED_CONTEXT ( ( #209, #13, #144 ) ) REPRESENTATION_CONTEXT ( 'NONE', 'WORKASPACE' ) );
#38 = APPROVAL_PERSON_ORGANIZATION ( #90, #45, #136 ) ;
#39 = PERSON_AND_ORGANIZATION ( #5, #66 ) ;
#40 = DIRECTION ( 'NONE',  ( 0.0000000000000000000, 0.0000000000000000000, 1.000000000000000000 ) ) ;
#41 = LINE ( 'NONE', #55, #92 ) ;
#42 = FACE_OUTER_BOUND ( 'NONE', #3, .T. ) ;
#43 = EDGE_CURVE ( 'NONE', #159, #11, #61, .T. ) ;
#44 = ORIENTED_EDGE ( 'NONE', *, *, #168, .T. ) ;
#45 = APPROVAL ( #57, 'UNSPECIFIED' ) ;
#46 = DATE_AND_TIME ( #71, #123 ) ;
#47 = CARTESIAN_POINT ( 'NONE',  ( -4.750000000000000000, 12.49999999999999300, 12.50000000000000000 ) ) ;
#48 = LOCAL_TIME ( 16, 51, 27.00000000000000000, #112 ) ;
#49 = LINE ( 'NONE', #65, #26 ) ;
#50 = DIRECTION ( 'NONE',  ( -1.000000000000000000, -0.0000000000000000000, -0.0000000000000000000 ) ) ;
#51 = CC_DESIGN_DATE_AND_TIME_ASSIGNMENT ( #110, #204, ( #226 ) ) ;
#52 = CARTESIAN_POINT ( 'NONE',  ( 4.750000000000000000, 12.50000000000000000, -12.50000000000000000 ) ) ;
#53 = CALENDAR_DATE ( 2018, 12, 3 ) ;
#54 = EDGE_LOOP ( 'NONE', ( #78, #105, #236, #172 ) ) ;
#55 = CARTESIAN_POINT ( 'NONE',  ( -4.750000000000000000, -12.50000000000000000, 12.50000000000000000 ) ) ;
#56 = AXIS2_PLACEMENT_3D ( 'NONE', #219, #59, #114 ) ;
#57 = APPROVAL_STATUS ( 'not_yet_approved' ) ;
#58 = PERSON_AND_ORGANIZATION ( #5, #66 ) ;
#59 = DIRECTION ( 'NONE',  ( -0.0000000000000000000, 1.000000000000000000, 0.0000000000000000000 ) ) ;
#60 = MECHANICAL_CONTEXT ( 'NONE', #122, 'mechanical' ) ;
#61 = LINE ( 'NONE', #9, #212 ) ;
#62 = APPROVAL ( #190, 'UNSPECIFIED' ) ;
#63 = COORDINATED_UNIVERSAL_TIME_OFFSET ( 5, 0, .BEHIND. ) ;
#64 = CARTESIAN_POINT ( 'NONE',  ( -4.750000000000000000, 12.49999999999999300, 12.50000000000000000 ) ) ;
#65 = CARTESIAN_POINT ( 'NONE',  ( 4.750000000000000000, 12.49999999999999300, 12.50000000000000000 ) ) ;
#66 = ORGANIZATION ( 'UNSPECIFIED', 'UNSPECIFIED', '' ) ;
#67 = ORIENTED_EDGE ( 'NONE', *, *, #160, .T. ) ;
#68 = EDGE_CURVE ( 'NONE', #89, #159, #218, .T. ) ;
#69 = DIRECTION ( 'NONE',  ( 0.0000000000000000000, 2.775557561562891400E-016, -1.000000000000000000 ) ) ;
#70 = VECTOR ( 'NONE', #167, 1000.000000000000000 ) ;
#71 = CALENDAR_DATE ( 2018, 12, 3 ) ;
#72 = APPROVAL_DATE_TIME ( #220, #14 ) ;
#73 = DIRECTION ( 'NONE',  ( 1.000000000000000000, 0.0000000000000000000, 0.0000000000000000000 ) ) ;
#74 = LINE ( 'NONE', #2, #70 ) ;
#75 = PRODUCT_DEFINITION_SHAPE ( 'NONE', 'NONE',  #226 ) ;
#76 = APPROVAL_STATUS ( 'not_yet_approved' ) ;
#77 = PERSON_AND_ORGANIZATION_ROLE ( 'design_owner' ) ;
#78 = ORIENTED_EDGE ( 'NONE', *, *, #231, .F. ) ;
#79 = ORIENTED_EDGE ( 'NONE', *, *, #160, .F. ) ;
#80 = AXIS2_PLACEMENT_3D ( 'NONE', #32, #73, #133 ) ;
#81 = CC_DESIGN_PERSON_AND_ORGANIZATION_ASSIGNMENT ( #19, #117, ( #149 ) ) ;
#82 = LINE ( 'NONE', #180, #36 ) ;
#83 = CARTESIAN_POINT ( 'NONE',  ( 4.750000000000000000, -12.50000000000000000, 12.50000000000000000 ) ) ;
#84 = CARTESIAN_POINT ( 'NONE',  ( 4.750000000000000000, 12.50000000000000000, -12.50000000000000000 ) ) ;
#85 = AXIS2_PLACEMENT_3D ( 'NONE', #106, #199, #69 ) ;
#86 = ORIENTED_EDGE ( 'NONE', *, *, #8, .F. ) ;
#87 = DIRECTION ( 'NONE',  ( -0.0000000000000000000, 0.0000000000000000000, 1.000000000000000000 ) ) ;
#88 = ADVANCED_FACE ( 'NONE', ( #113 ), #130, .F. ) ;
#89 = VERTEX_POINT ( 'NONE', #233 ) ;
#90 = PERSON_AND_ORGANIZATION ( #5, #66 ) ;
#91 = VECTOR ( 'NONE', #17, 1000.000000000000000 ) ;
#92 = VECTOR ( 'NONE', #147, 1000.000000000000000 ) ;
#93 = VECTOR ( 'NONE', #215, 1000.000000000000000 ) ;
#94 = ORIENTED_EDGE ( 'NONE', *, *, #104, .F. ) ;
#95 = APPLICATION_PROTOCOL_DEFINITION ( 'international standard', 'config_control_design', 1994, #170 ) ;
#96 = SECURITY_CLASSIFICATION_LEVEL ( 'unclassified' ) ;
#97 = PRODUCT_RELATED_PRODUCT_CATEGORY ( 'detail', '', ( #205 ) ) ;
#98 = VECTOR ( 'NONE', #165, 1000.000000000000000 ) ;
#99 = ORIENTED_EDGE ( 'NONE', *, *, #185, .T. ) ;
#100 = PERSON_AND_ORGANIZATION ( #5, #66 ) ;
#101 = VECTOR ( 'NONE', #228, 1000.000000000000000 ) ;
#102 = DIRECTION ( 'NONE',  ( -0.0000000000000000000, -2.775557561562891400E-016, 1.000000000000000000 ) ) ;
#103 = ADVANCED_FACE ( 'NONE', ( #42 ), #129, .F. ) ;
#104 = EDGE_CURVE ( 'NONE', #156, #224, #166, .T. ) ;
#105 = ORIENTED_EDGE ( 'NONE', *, *, #185, .F. ) ;
#106 = CARTESIAN_POINT ( 'NONE',  ( 4.750000000000000000, 12.49999999999999300, 12.50000000000000000 ) ) ;
#107 = DIRECTION ( 'NONE',  ( 1.000000000000000000, 0.0000000000000000000, 0.0000000000000000000 ) ) ;
#108 = CC_DESIGN_APPROVAL ( #45, ( #149 ) ) ;
#109 = APPROVAL_DATE_TIME ( #196, #62 ) ;
#110 = DATE_AND_TIME ( #210, #23 ) ;
#111 = CARTESIAN_POINT ( 'NONE',  ( 4.750000000000000000, 12.49999999999999300, 12.50000000000000000 ) ) ;
#112 = COORDINATED_UNIVERSAL_TIME_OFFSET ( 5, 0, .BEHIND. ) ;
#113 = FACE_OUTER_BOUND ( 'NONE', #131, .T. ) ;
#114 = DIRECTION ( 'NONE',  ( 0.0000000000000000000, -0.0000000000000000000, 1.000000000000000000 ) ) ;
#115 = CALENDAR_DATE ( 2018, 12, 3 ) ;
#116 = APPLICATION_PROTOCOL_DEFINITION ( 'international standard', 'config_control_design', 1994, #122 ) ;
#117 = PERSON_AND_ORGANIZATION_ROLE ( 'classification_officer' ) ;
#118 = PLANE ( 'NONE',  #121 ) ;
#119 = DIRECTION ( 'NONE',  ( 1.000000000000000000, 0.0000000000000000000, 0.0000000000000000000 ) ) ;
#120 = CARTESIAN_POINT ( 'NONE',  ( 4.750000000000000000, 12.49999999999999300, 12.50000000000000000 ) ) ;
#121 = AXIS2_PLACEMENT_3D ( 'NONE', #31, #119, #138 ) ;
#122 = APPLICATION_CONTEXT ( 'configuration controlled 3d designs of mechanical parts and assemblies' ) ;
#123 = LOCAL_TIME ( 16, 51, 27.00000000000000000, #148 ) ;
#124 = AXIS2_PLACEMENT_3D ( 'NONE', #111, #161, #230 ) ;
#125 = DATE_AND_TIME ( #229, #48 ) ;
#126 = PERSON_AND_ORGANIZATION ( #5, #66 ) ;
#127 = VERTEX_POINT ( 'NONE', #47 ) ;
#128 = PLANE ( 'NONE',  #18 ) ;
#129 = PLANE ( 'NONE',  #85 ) ;
#130 = PLANE ( 'NONE',  #124 ) ;
#131 = EDGE_LOOP ( 'NONE', ( #134, #94, #227, #141 ) ) ;
#132 = EDGE_LOOP ( 'NONE', ( #202, #145, #154, #181 ) ) ;
#133 = DIRECTION ( 'NONE',  ( 0.0000000000000000000, 0.0000000000000000000, -1.000000000000000000 ) ) ;
#134 = ORIENTED_EDGE ( 'NONE', *, *, #231, .T. ) ;
#135 = CC_DESIGN_PERSON_AND_ORGANIZATION_ASSIGNMENT ( #234, #188, ( #151 ) ) ;
#136 = APPROVAL_ROLE ( '' ) ;
#137 = LINE ( 'NONE', #29, #24 ) ;
#138 = DIRECTION ( 'NONE',  ( 0.0000000000000000000, 0.0000000000000000000, -1.000000000000000000 ) ) ;
#139 = EDGE_CURVE ( 'NONE', #156, #89, #22, .T. ) ;
#140 = APPROVAL_DATE_TIME ( #46, #45 ) ;
#141 = ORIENTED_EDGE ( 'NONE', *, *, #173, .T. ) ;
#142 = CARTESIAN_POINT ( 'NONE',  ( 4.750000000000000000, -12.50000000000000000, 12.50000000000000000 ) ) ;
#143 = VERTEX_POINT ( 'NONE', #15 ) ;
#144 =( NAMED_UNIT ( * ) SI_UNIT ( $, .STERADIAN. ) SOLID_ANGLE_UNIT ( ) );
#145 = ORIENTED_EDGE ( 'NONE', *, *, #139, .T. ) ;
#146 = DIRECTION ( 'NONE',  ( -1.000000000000000000, -0.0000000000000000000, -0.0000000000000000000 ) ) ;
#147 = DIRECTION ( 'NONE',  ( 0.0000000000000000000, 0.0000000000000000000, -1.000000000000000000 ) ) ;
#148 = COORDINATED_UNIVERSAL_TIME_OFFSET ( 5, 0, .BEHIND. ) ;
#149 = SECURITY_CLASSIFICATION ( '', '', #96 ) ;
#150 = LINE ( 'NONE', #1, #98 ) ;
#151 = PRODUCT_DEFINITION_FORMATION_WITH_SPECIFIED_SOURCE ( 'ANY', '', #205, .NOT_KNOWN. ) ;
#152 = DESIGN_CONTEXT ( 'detailed design', #170, 'design' ) ;
#153 = CARTESIAN_POINT ( 'NONE',  ( -4.750000000000000000, -12.50000000000000000, 12.50000000000000000 ) ) ;
#154 = ORIENTED_EDGE ( 'NONE', *, *, #68, .T. ) ;
#155 = ORIENTED_EDGE ( 'NONE', *, *, #173, .F. ) ;
#156 = VERTEX_POINT ( 'NONE', #83 ) ;
#157 = CARTESIAN_POINT ( 'NONE',  ( 4.750000000000000000, -12.50000000000000000, 12.50000000000000000 ) ) ;
#158 = ADVANCED_FACE ( 'NONE', ( #164 ), #128, .F. ) ;
#159 = VERTEX_POINT ( 'NONE', #84 ) ;
#160 = EDGE_CURVE ( 'NONE', #89, #143, #137, .T. ) ;
#161 = DIRECTION ( 'NONE',  ( 0.0000000000000000000, 0.0000000000000000000, -1.000000000000000000 ) ) ;
#162 = CC_DESIGN_APPROVAL ( #62, ( #151 ) ) ;
#163 = COORDINATED_UNIVERSAL_TIME_OFFSET ( 5, 0, .BEHIND. ) ;
#164 = FACE_OUTER_BOUND ( 'NONE', #177, .T. ) ;
#165 = DIRECTION ( 'NONE',  ( -1.000000000000000000, -0.0000000000000000000, -0.0000000000000000000 ) ) ;
#166 = LINE ( 'NONE', #157, #12 ) ;
#167 = DIRECTION ( 'NONE',  ( 0.0000000000000000000, -1.000000000000000000, 0.0000000000000000000 ) ) ;
#168 = EDGE_CURVE ( 'NONE', #143, #11, #82, .T. ) ;
#169 = PLANE ( 'NONE',  #80 ) ;
#170 = APPLICATION_CONTEXT ( 'configuration controlled 3d designs of mechanical parts and assemblies' ) ;
#171 = LOCAL_TIME ( 16, 51, 27.00000000000000000, #163 ) ;
#172 = ORIENTED_EDGE ( 'NONE', *, *, #206, .F. ) ;
#173 = EDGE_CURVE ( 'NONE', #21, #127, #150, .T. ) ;
#174 = COORDINATED_UNIVERSAL_TIME_OFFSET ( 5, 0, .BEHIND. ) ;
#175 = ORIENTED_EDGE ( 'NONE', *, *, #43, .F. ) ;
#176 = UNCERTAINTY_MEASURE_WITH_UNIT (LENGTH_MEASURE( 1.000000000000000100E-005 ), #209, 'distance_accuracy_value', 'NONE');
#177 = EDGE_LOOP ( 'NONE', ( #44, #175, #194, #67 ) ) ;
#178 = CLOSED_SHELL ( 'NONE', ( #88, #211, #158, #103, #216, #198 ) ) ;
#179 = CARTESIAN_POINT ( 'NONE',  ( 4.750000000000000000, 12.50000000000000000, -12.50000000000000000 ) ) ;
#180 = CARTESIAN_POINT ( 'NONE',  ( -4.750000000000000000, 12.50000000000000000, -12.50000000000000000 ) ) ;
#181 = ORIENTED_EDGE ( 'NONE', *, *, #8, .T. ) ;
#182 = CARTESIAN_POINT ( 'NONE',  ( 0.0000000000000000000, 0.0000000000000000000, 0.0000000000000000000 ) ) ;
#183 = AXIS2_PLACEMENT_3D ( 'NONE', #182, #40, #16 ) ;
#184 = DIRECTION ( 'NONE',  ( -0.0000000000000000000, 1.000000000000000000, -0.0000000000000000000 ) ) ;
#185 = EDGE_CURVE ( 'NONE', #11, #127, #207, .T. ) ;
#186 = FACE_OUTER_BOUND ( 'NONE', #191, .T. ) ;
#187 = APPROVAL_ROLE ( '' ) ;
#188 = PERSON_AND_ORGANIZATION_ROLE ( 'design_supplier' ) ;
#189 = SHAPE_DEFINITION_REPRESENTATION ( #75, #203 ) ;
#190 = APPROVAL_STATUS ( 'not_yet_approved' ) ;
#191 = EDGE_LOOP ( 'NONE', ( #20, #79, #225, #6 ) ) ;
#192 = APPROVAL_ROLE ( '' ) ;
#193 = FACE_OUTER_BOUND ( 'NONE', #54, .T. ) ;
#194 = ORIENTED_EDGE ( 'NONE', *, *, #68, .F. ) ;
#195 = CARTESIAN_POINT ( 'NONE',  ( -4.750000000000000000, 12.50000000000000000, -12.50000000000000000 ) ) ;
#196 = DATE_AND_TIME ( #53, #10 ) ;
#197 = VECTOR ( 'NONE', #27, 1000.000000000000000 ) ;
#198 = ADVANCED_FACE ( 'NONE', ( #193 ), #169, .F. ) ;
#199 = DIRECTION ( 'NONE',  ( 0.0000000000000000000, -1.000000000000000000, -2.775557561562891400E-016 ) ) ;
#200 = CARTESIAN_POINT ( 'NONE',  ( -4.750000000000000000, 12.49999999999999300, 12.50000000000000000 ) ) ;
#201 = CC_DESIGN_SECURITY_CLASSIFICATION ( #149, ( #151 ) ) ;
#202 = ORIENTED_EDGE ( 'NONE', *, *, #208, .T. ) ;
#203 = ADVANCED_BREP_SHAPE_REPRESENTATION ( 'Web Model 43848_49573', ( #223, #183 ), #37 ) ;
#204 = DATE_TIME_ROLE ( 'creation_date' ) ;
#205 = PRODUCT ( 'Web Model 43848_49573', 'Web Model 43848_49573', '', ( #60 ) ) ;
#206 = EDGE_CURVE ( 'NONE', #224, #143, #41, .T. ) ;
#207 = LINE ( 'NONE', #200, #91 ) ;
#208 = EDGE_CURVE ( 'NONE', #21, #156, #74, .T. ) ;
#209 =( LENGTH_UNIT ( ) NAMED_UNIT ( * ) SI_UNIT ( .MILLI., .METRE. ) );
#210 = CALENDAR_DATE ( 2018, 12, 3 ) ;
#211 = ADVANCED_FACE ( 'NONE', ( #186 ), #237, .F. ) ;
#212 = VECTOR ( 'NONE', #50, 1000.000000000000000 ) ;
#213 = CC_DESIGN_PERSON_AND_ORGANIZATION_ASSIGNMENT ( #39, #77, ( #205 ) ) ;
#214 = CC_DESIGN_PERSON_AND_ORGANIZATION_ASSIGNMENT ( #100, #4, ( #151 ) ) ;
#215 = DIRECTION ( 'NONE',  ( -0.0000000000000000000, 1.000000000000000000, -0.0000000000000000000 ) ) ;
#216 = ADVANCED_FACE ( 'NONE', ( #30 ), #118, .T. ) ;
#217 = APPROVAL_PERSON_ORGANIZATION ( #58, #14, #192 ) ;
#218 = LINE ( 'NONE', #179, #93 ) ;
#219 = CARTESIAN_POINT ( 'NONE',  ( 4.750000000000000000, -12.50000000000000000, 12.50000000000000000 ) ) ;
#220 = DATE_AND_TIME ( #115, #171 ) ;
#221 = ORIENTED_EDGE ( 'NONE', *, *, #43, .T. ) ;
#222 = PERSON_AND_ORGANIZATION_ROLE ( 'creator' ) ;
#223 = MANIFOLD_SOLID_BREP ( 'Boss-Extrude1', #178 ) ;
#224 = VERTEX_POINT ( 'NONE', #153 ) ;
#225 = ORIENTED_EDGE ( 'NONE', *, *, #139, .F. ) ;
#226 = PRODUCT_DEFINITION ( 'UNKNOWN', '', #151, #152 ) ;
#227 = ORIENTED_EDGE ( 'NONE', *, *, #208, .F. ) ;
#228 = DIRECTION ( 'NONE',  ( 0.0000000000000000000, -1.000000000000000000, 0.0000000000000000000 ) ) ;
#229 = CALENDAR_DATE ( 2018, 12, 3 ) ;
#230 = DIRECTION ( 'NONE',  ( -1.000000000000000000, 0.0000000000000000000, -0.0000000000000000000 ) ) ;
#231 = EDGE_CURVE ( 'NONE', #127, #224, #235, .T. ) ;
#232 = DIRECTION ( 'NONE',  ( -1.000000000000000000, -0.0000000000000000000, -0.0000000000000000000 ) ) ;
#233 = CARTESIAN_POINT ( 'NONE',  ( 4.750000000000000000, -12.50000000000000000, -12.50000000000000000 ) ) ;
#234 = PERSON_AND_ORGANIZATION ( #5, #66 ) ;
#235 = LINE ( 'NONE', #64, #101 ) ;
#236 = ORIENTED_EDGE ( 'NONE', *, *, #168, .F. ) ;
#237 = PLANE ( 'NONE',  #56 ) ;
ENDSEC;
END-ISO-10303-21;
