ISO-10303-21;
HEADER;
FILE_DESCRIPTION (( 'STEP AP203' ),
    '1' );
FILE_NAME ('Web Model 68392.STEP',
    '2017-01-31T19:54:55',
    ( '' ),
    ( '' ),
    'SwSTEP 2.0',
    'SolidWorks 2016',
    '' );
FILE_SCHEMA (( 'CONFIG_CONTROL_DESIGN' ));
ENDSEC;

DATA;
#1 = DATE_AND_TIME ( #54, #190 ) ;
#2 = CC_DESIGN_APPROVAL ( #226, ( #57 ) ) ;
#3 = COORDINATED_UNIVERSAL_TIME_OFFSET ( 5, 0, .BEHIND. ) ;
#4 = VERTEX_POINT ( 'NONE', #5 ) ;
#5 = CARTESIAN_POINT ( 'NONE',  ( 17.49999999999999600, 17.50000000000000000, 3.000000000000000000 ) ) ;
#6 = VECTOR ( 'NONE', #196, 1000.000000000000000 ) ;
#7 = CARTESIAN_POINT ( 'NONE',  ( 17.49999999999999600, 17.50000000000000000, 3.000000000000000000 ) ) ;
#8 = CC_DESIGN_APPROVAL ( #217, ( #199 ) ) ;
#9 = CARTESIAN_POINT ( 'NONE',  ( -17.49999999999999600, -17.50000000000000700, 3.000000000000000000 ) ) ;
#10 = CARTESIAN_POINT ( 'NONE',  ( 17.49999999999999600, 17.50000000000000000, 0.0000000000000000000 ) ) ;
#11 = FACE_OUTER_BOUND ( 'NONE', #163, .T. ) ;
#12 = LINE ( 'NONE', #132, #172 ) ;
#13 = DIRECTION ( 'NONE',  ( 9.912705577010325500E-017, -1.000000000000000000, 0.0000000000000000000 ) ) ;
#14 = APPLICATION_PROTOCOL_DEFINITION ( 'international standard', 'config_control_design', 1994, #170 ) ;
#15 = DIRECTION ( 'NONE',  ( 0.0000000000000000000, 0.0000000000000000000, -1.000000000000000000 ) ) ;
#16 =( GEOMETRIC_REPRESENTATION_CONTEXT ( 3 ) GLOBAL_UNCERTAINTY_ASSIGNED_CONTEXT ( ( #55 ) ) GLOBAL_UNIT_ASSIGNED_CONTEXT ( ( #225, #33, #49 ) ) REPRESENTATION_CONTEXT ( 'NONE', 'WORKASPACE' ) );
#17 = PERSON_AND_ORGANIZATION_ROLE ( 'creator' ) ;
#18 = MECHANICAL_CONTEXT ( 'NONE', #170, 'mechanical' ) ;
#19 = APPROVAL_ROLE ( '' ) ;
#20 = LINE ( 'NONE', #137, #6 ) ;
#21 = ORIENTED_EDGE ( 'NONE', *, *, #85, .F. ) ;
#22 = PERSON_AND_ORGANIZATION_ROLE ( 'classification_officer' ) ;
#23 = LINE ( 'NONE', #167, #145 ) ;
#24 = DATE_AND_TIME ( #43, #116 ) ;
#25 = VECTOR ( 'NONE', #189, 1000.000000000000000 ) ;
#26 = LINE ( 'NONE', #220, #152 ) ;
#27 = AXIS2_PLACEMENT_3D ( 'NONE', #221, #130, #67 ) ;
#28 = CARTESIAN_POINT ( 'NONE',  ( 17.49999999999999600, 17.50000000000000000, 0.0000000000000000000 ) ) ;
#29 = PLANE ( 'NONE',  #27 ) ;
#30 = ORIENTED_EDGE ( 'NONE', *, *, #204, .T. ) ;
#31 = EDGE_CURVE ( 'NONE', #94, #191, #112, .T. ) ;
#32 = VECTOR ( 'NONE', #53, 1000.000000000000000 ) ;
#33 =( NAMED_UNIT ( * ) PLANE_ANGLE_UNIT ( ) SI_UNIT ( $, .RADIAN. ) );
#34 = PERSON_AND_ORGANIZATION ( #128, #223 ) ;
#35 = VERTEX_POINT ( 'NONE', #150 ) ;
#36 = EDGE_CURVE ( 'NONE', #191, #35, #12, .T. ) ;
#37 = ADVANCED_FACE ( 'NONE', ( #82 ), #100, .F. ) ;
#38 = APPROVAL_STATUS ( 'not_yet_approved' ) ;
#39 = ORIENTED_EDGE ( 'NONE', *, *, #204, .F. ) ;
#40 = EDGE_CURVE ( 'NONE', #59, #191, #98, .T. ) ;
#41 = ORIENTED_EDGE ( 'NONE', *, *, #138, .T. ) ;
#42 = MANIFOLD_SOLID_BREP ( 'Extrude1', #65 ) ;
#43 = CALENDAR_DATE ( 2017, 31, 1 ) ;
#44 = FACE_OUTER_BOUND ( 'NONE', #216, .T. ) ;
#45 = VECTOR ( 'NONE', #129, 1000.000000000000000 ) ;
#46 = PLANE ( 'NONE',  #233 ) ;
#47 = COORDINATED_UNIVERSAL_TIME_OFFSET ( 5, 0, .BEHIND. ) ;
#48 = DIRECTION ( 'NONE',  ( -1.000000000000000000, -1.982541115402065100E-016, 0.0000000000000000000 ) ) ;
#49 =( NAMED_UNIT ( * ) SI_UNIT ( $, .STERADIAN. ) SOLID_ANGLE_UNIT ( ) );
#50 = PRODUCT_RELATED_PRODUCT_CATEGORY ( 'detail', '', ( #84 ) ) ;
#51 = CARTESIAN_POINT ( 'NONE',  ( 0.0000000000000000000, 0.0000000000000000000, 0.0000000000000000000 ) ) ;
#52 = DIRECTION ( 'NONE',  ( -1.000000000000000000, 0.0000000000000000000, -0.0000000000000000000 ) ) ;
#53 = DIRECTION ( 'NONE',  ( -0.0000000000000000000, -0.0000000000000000000, -1.000000000000000000 ) ) ;
#54 = CALENDAR_DATE ( 2017, 31, 1 ) ;
#55 = UNCERTAINTY_MEASURE_WITH_UNIT (LENGTH_MEASURE( 1.000000000000000100E-005 ), #225, 'distance_accuracy_value', 'NONE');
#56 = APPROVAL_ROLE ( '' ) ;
#57 = SECURITY_CLASSIFICATION ( '', '', #93 ) ;
#58 = APPROVAL_DATE_TIME ( #182, #195 ) ;
#59 = VERTEX_POINT ( 'NONE', #99 ) ;
#60 = APPROVAL_PERSON_ORGANIZATION ( #124, #226, #56 ) ;
#61 = VECTOR ( 'NONE', #135, 1000.000000000000000 ) ;
#62 = CC_DESIGN_PERSON_AND_ORGANIZATION_ASSIGNMENT ( #209, #160, ( #199 ) ) ;
#63 = ORIENTED_EDGE ( 'NONE', *, *, #201, .F. ) ;
#64 = DIRECTION ( 'NONE',  ( -0.0000000000000000000, -0.0000000000000000000, -1.000000000000000000 ) ) ;
#65 = CLOSED_SHELL ( 'NONE', ( #72, #178, #37, #175, #198, #91 ) ) ;
#66 = AXIS2_PLACEMENT_3D ( 'NONE', #121, #106, #105 ) ;
#67 = DIRECTION ( 'NONE',  ( -9.912705577010325500E-017, 1.000000000000000000, 0.0000000000000000000 ) ) ;
#68 = EDGE_LOOP ( 'NONE', ( #158, #123, #70, #203 ) ) ;
#69 = DIRECTION ( 'NONE',  ( -0.0000000000000000000, -0.0000000000000000000, -1.000000000000000000 ) ) ;
#70 = ORIENTED_EDGE ( 'NONE', *, *, #74, .F. ) ;
#71 = PLANE ( 'NONE',  #66 ) ;
#72 = ADVANCED_FACE ( 'NONE', ( #177 ), #29, .F. ) ;
#73 = ORIENTED_EDGE ( 'NONE', *, *, #85, .T. ) ;
#74 = EDGE_CURVE ( 'NONE', #35, #228, #76, .T. ) ;
#75 = ORIENTED_EDGE ( 'NONE', *, *, #219, .F. ) ;
#76 = LINE ( 'NONE', #28, #45 ) ;
#77 = CARTESIAN_POINT ( 'NONE',  ( -17.49999999999999600, -17.50000000000000700, 3.000000000000000000 ) ) ;
#78 = ORIENTED_EDGE ( 'NONE', *, *, #36, .T. ) ;
#79 = DIRECTION ( 'NONE',  ( 0.0000000000000000000, 0.0000000000000000000, -1.000000000000000000 ) ) ;
#80 = CALENDAR_DATE ( 2017, 31, 1 ) ;
#81 = APPROVAL_DATE_TIME ( #231, #217 ) ;
#82 = FACE_OUTER_BOUND ( 'NONE', #168, .T. ) ;
#83 = DIRECTION ( 'NONE',  ( 1.000000000000000000, 9.912705577010325500E-017, -0.0000000000000000000 ) ) ;
#84 = PRODUCT ( 'Web Model 68392', 'Web Model 68392', '', ( #18 ) ) ;
#85 = EDGE_CURVE ( 'NONE', #153, #59, #23, .T. ) ;
#86 = DIRECTION ( 'NONE',  ( 1.000000000000000000, 1.982541115402065100E-016, 0.0000000000000000000 ) ) ;
#87 = PERSON_AND_ORGANIZATION ( #128, #223 ) ;
#88 = FACE_OUTER_BOUND ( 'NONE', #68, .T. ) ;
#89 = DIRECTION ( 'NONE',  ( 1.982541115402065100E-016, -1.000000000000000000, 0.0000000000000000000 ) ) ;
#90 = DATE_TIME_ROLE ( 'creation_date' ) ;
#91 = ADVANCED_FACE ( 'NONE', ( #88 ), #46, .T. ) ;
#92 = APPLICATION_CONTEXT ( 'configuration controlled 3d designs of mechanical parts and assemblies' ) ;
#93 = SECURITY_CLASSIFICATION_LEVEL ( 'unclassified' ) ;
#94 = VERTEX_POINT ( 'NONE', #77 ) ;
#95 = EDGE_CURVE ( 'NONE', #4, #228, #26, .T. ) ;
#96 = APPROVAL_PERSON_ORGANIZATION ( #187, #217, #174 ) ;
#97 = EDGE_CURVE ( 'NONE', #4, #153, #171, .T. ) ;
#98 = LINE ( 'NONE', #146, #184 ) ;
#99 = CARTESIAN_POINT ( 'NONE',  ( -17.50000000000000000, 17.49999999999999600, 0.0000000000000000000 ) ) ;
#100 = PLANE ( 'NONE',  #237 ) ;
#101 = APPROVAL_PERSON_ORGANIZATION ( #87, #195, #19 ) ;
#102 = CARTESIAN_POINT ( 'NONE',  ( 17.49999999999999600, 17.50000000000000000, 0.0000000000000000000 ) ) ;
#103 = LINE ( 'NONE', #173, #197 ) ;
#104 = VERTEX_POINT ( 'NONE', #134 ) ;
#105 = DIRECTION ( 'NONE',  ( -1.000000000000000000, -9.912705577010325500E-017, 0.0000000000000000000 ) ) ;
#106 = DIRECTION ( 'NONE',  ( -9.912705577010325500E-017, 1.000000000000000000, 0.0000000000000000000 ) ) ;
#107 = CARTESIAN_POINT ( 'NONE',  ( 17.49999999999999600, 17.50000000000000000, 3.000000000000000000 ) ) ;
#108 = FACE_OUTER_BOUND ( 'NONE', #142, .T. ) ;
#109 = DATE_TIME_ROLE ( 'classification_date' ) ;
#110 = VECTOR ( 'NONE', #227, 1000.000000000000000 ) ;
#111 = DIRECTION ( 'NONE',  ( 0.0000000000000000000, 0.0000000000000000000, 1.000000000000000000 ) ) ;
#112 = LINE ( 'NONE', #9, #127 ) ;
#113 = AXIS2_PLACEMENT_3D ( 'NONE', #210, #15, #52 ) ;
#114 = DATE_AND_TIME ( #80, #147 ) ;
#115 = ORIENTED_EDGE ( 'NONE', *, *, #97, .F. ) ;
#116 = LOCAL_TIME ( 14, 54, 55.00000000000000000, #162 ) ;
#117 = CC_DESIGN_PERSON_AND_ORGANIZATION_ASSIGNMENT ( #34, #22, ( #57 ) ) ;
#118 = ORIENTED_EDGE ( 'NONE', *, *, #74, .T. ) ;
#119 = PLANE ( 'NONE',  #192 ) ;
#120 = ORIENTED_EDGE ( 'NONE', *, *, #40, .T. ) ;
#121 = CARTESIAN_POINT ( 'NONE',  ( 17.50000000000000400, -17.50000000000000400, 3.000000000000000000 ) ) ;
#122 = ORIENTED_EDGE ( 'NONE', *, *, #133, .T. ) ;
#123 = ORIENTED_EDGE ( 'NONE', *, *, #138, .F. ) ;
#124 = PERSON_AND_ORGANIZATION ( #128, #223 ) ;
#125 = CALENDAR_DATE ( 2017, 31, 1 ) ;
#126 = ORIENTED_EDGE ( 'NONE', *, *, #31, .T. ) ;
#127 = VECTOR ( 'NONE', #185, 1000.000000000000000 ) ;
#128 = PERSON ( 'UNSPECIFIED', 'UNSPECIFIED', 'UNSPECIFIED', ('UNSPECIFIED'), ('UNSPECIFIED'), ('UNSPECIFIED') ) ;
#129 = DIRECTION ( 'NONE',  ( -1.982541115402065100E-016, 1.000000000000000000, -0.0000000000000000000 ) ) ;
#130 = DIRECTION ( 'NONE',  ( 1.000000000000000000, 9.912705577010325500E-017, -0.0000000000000000000 ) ) ;
#131 = PERSON_AND_ORGANIZATION ( #128, #223 ) ;
#132 = CARTESIAN_POINT ( 'NONE',  ( 17.50000000000000400, -17.50000000000000400, 0.0000000000000000000 ) ) ;
#133 = EDGE_CURVE ( 'NONE', #104, #4, #214, .T. ) ;
#134 = CARTESIAN_POINT ( 'NONE',  ( 17.50000000000000400, -17.50000000000000400, 3.000000000000000000 ) ) ;
#135 = DIRECTION ( 'NONE',  ( -1.000000000000000000, -1.982541115402065100E-016, 0.0000000000000000000 ) ) ;
#136 = ORIENTED_EDGE ( 'NONE', *, *, #95, .T. ) ;
#137 = CARTESIAN_POINT ( 'NONE',  ( 17.50000000000000400, -17.50000000000000400, 3.000000000000000000 ) ) ;
#138 = EDGE_CURVE ( 'NONE', #228, #59, #159, .T. ) ;
#139 = APPLICATION_PROTOCOL_DEFINITION ( 'international standard', 'config_control_design', 1994, #92 ) ;
#140 = DIRECTION ( 'NONE',  ( 1.000000000000000000, 0.0000000000000000000, 0.0000000000000000000 ) ) ;
#141 = PERSON_AND_ORGANIZATION ( #128, #223 ) ;
#142 = EDGE_LOOP ( 'NONE', ( #180, #30, #122, #205 ) ) ;
#143 = LOCAL_TIME ( 14, 54, 55.00000000000000000, #206 ) ;
#144 = PERSON_AND_ORGANIZATION ( #128, #223 ) ;
#145 = VECTOR ( 'NONE', #64, 1000.000000000000000 ) ;
#146 = CARTESIAN_POINT ( 'NONE',  ( -17.50000000000000000, 17.49999999999999600, 0.0000000000000000000 ) ) ;
#147 = LOCAL_TIME ( 14, 54, 55.00000000000000000, #222 ) ;
#148 = CARTESIAN_POINT ( 'NONE',  ( -17.49999999999999600, -17.50000000000000700, 0.0000000000000000000 ) ) ;
#149 = CALENDAR_DATE ( 2017, 31, 1 ) ;
#150 = CARTESIAN_POINT ( 'NONE',  ( 17.50000000000000400, -17.50000000000000400, 0.0000000000000000000 ) ) ;
#151 = APPROVAL_DATE_TIME ( #114, #226 ) ;
#152 = VECTOR ( 'NONE', #69, 1000.000000000000000 ) ;
#153 = VERTEX_POINT ( 'NONE', #229 ) ;
#154 = CARTESIAN_POINT ( 'NONE',  ( -17.49999999999999600, -17.50000000000000700, 0.0000000000000000000 ) ) ;
#155 = PLANE ( 'NONE',  #113 ) ;
#156 = ADVANCED_BREP_SHAPE_REPRESENTATION ( 'Web Model 68392', ( #42, #232 ), #16 ) ;
#157 = CARTESIAN_POINT ( 'NONE',  ( 17.50000000000000400, -17.50000000000000400, 3.000000000000000000 ) ) ;
#158 = ORIENTED_EDGE ( 'NONE', *, *, #40, .F. ) ;
#159 = LINE ( 'NONE', #102, #61 ) ;
#160 = PERSON_AND_ORGANIZATION_ROLE ( 'design_supplier' ) ;
#161 = ORIENTED_EDGE ( 'NONE', *, *, #133, .F. ) ;
#162 = COORDINATED_UNIVERSAL_TIME_OFFSET ( 5, 0, .BEHIND. ) ;
#163 = EDGE_LOOP ( 'NONE', ( #78, #63, #39, #126 ) ) ;
#164 = ORIENTED_EDGE ( 'NONE', *, *, #31, .F. ) ;
#165 = DIRECTION ( 'NONE',  ( 9.912705577010325500E-017, -1.000000000000000000, 0.0000000000000000000 ) ) ;
#166 = CC_DESIGN_PERSON_AND_ORGANIZATION_ASSIGNMENT ( #131, #230, ( #181 ) ) ;
#167 = CARTESIAN_POINT ( 'NONE',  ( -17.50000000000000000, 17.49999999999999600, 3.000000000000000000 ) ) ;
#168 = EDGE_LOOP ( 'NONE', ( #118, #211, #161, #235 ) ) ;
#169 = CC_DESIGN_PERSON_AND_ORGANIZATION_ASSIGNMENT ( #144, #179, ( #84 ) ) ;
#170 = APPLICATION_CONTEXT ( 'configuration controlled 3d designs of mechanical parts and assemblies' ) ;
#171 = LINE ( 'NONE', #194, #25 ) ;
#172 = VECTOR ( 'NONE', #83, 1000.000000000000000 ) ;
#173 = CARTESIAN_POINT ( 'NONE',  ( -17.50000000000000000, 17.49999999999999600, 3.000000000000000000 ) ) ;
#174 = APPROVAL_ROLE ( '' ) ;
#175 = ADVANCED_FACE ( 'NONE', ( #44 ), #119, .F. ) ;
#176 = LOCAL_TIME ( 14, 54, 55.00000000000000000, #47 ) ;
#177 = FACE_OUTER_BOUND ( 'NONE', #218, .T. ) ;
#178 = ADVANCED_FACE ( 'NONE', ( #11 ), #71, .F. ) ;
#179 = PERSON_AND_ORGANIZATION_ROLE ( 'design_owner' ) ;
#180 = ORIENTED_EDGE ( 'NONE', *, *, #219, .T. ) ;
#181 = PRODUCT_DEFINITION ( 'UNKNOWN', '', #199, #224 ) ;
#182 = DATE_AND_TIME ( #149, #143 ) ;
#183 = PRODUCT_DEFINITION_SHAPE ( 'NONE', 'NONE',  #181 ) ;
#184 = VECTOR ( 'NONE', #165, 1000.000000000000000 ) ;
#185 = DIRECTION ( 'NONE',  ( -0.0000000000000000000, -0.0000000000000000000, -1.000000000000000000 ) ) ;
#186 = DIRECTION ( 'NONE',  ( -1.000000000000000000, 0.0000000000000000000, -0.0000000000000000000 ) ) ;
#187 = PERSON_AND_ORGANIZATION ( #128, #223 ) ;
#188 = CC_DESIGN_PERSON_AND_ORGANIZATION_ASSIGNMENT ( #141, #17, ( #199 ) ) ;
#189 = DIRECTION ( 'NONE',  ( -1.000000000000000000, -1.982541115402065100E-016, 0.0000000000000000000 ) ) ;
#190 = LOCAL_TIME ( 14, 54, 55.00000000000000000, #3 ) ;
#191 = VERTEX_POINT ( 'NONE', #154 ) ;
#192 = AXIS2_PLACEMENT_3D ( 'NONE', #107, #89, #86 ) ;
#193 = CARTESIAN_POINT ( 'NONE',  ( 17.49999999999999600, 17.50000000000000000, 3.000000000000000000 ) ) ;
#194 = CARTESIAN_POINT ( 'NONE',  ( 17.49999999999999600, 17.50000000000000000, 3.000000000000000000 ) ) ;
#195 = APPROVAL ( #200, 'UNSPECIFIED' ) ;
#196 = DIRECTION ( 'NONE',  ( 1.000000000000000000, 9.912705577010325500E-017, -0.0000000000000000000 ) ) ;
#197 = VECTOR ( 'NONE', #13, 1000.000000000000000 ) ;
#198 = ADVANCED_FACE ( 'NONE', ( #108 ), #155, .F. ) ;
#199 = PRODUCT_DEFINITION_FORMATION_WITH_SPECIFIED_SOURCE ( 'ANY', '', #84, .NOT_KNOWN. ) ;
#200 = APPROVAL_STATUS ( 'not_yet_approved' ) ;
#201 = EDGE_CURVE ( 'NONE', #104, #35, #212, .T. ) ;
#202 = SHAPE_DEFINITION_REPRESENTATION ( #183, #156 ) ;
#203 = ORIENTED_EDGE ( 'NONE', *, *, #36, .F. ) ;
#204 = EDGE_CURVE ( 'NONE', #94, #104, #20, .T. ) ;
#205 = ORIENTED_EDGE ( 'NONE', *, *, #97, .T. ) ;
#206 = COORDINATED_UNIVERSAL_TIME_OFFSET ( 5, 0, .BEHIND. ) ;
#207 = DIRECTION ( 'NONE',  ( 1.982541115402065100E-016, -1.000000000000000000, 0.0000000000000000000 ) ) ;
#208 = CC_DESIGN_DATE_AND_TIME_ASSIGNMENT ( #1, #90, ( #181 ) ) ;
#209 = PERSON_AND_ORGANIZATION ( #128, #223 ) ;
#210 = CARTESIAN_POINT ( 'NONE',  ( -17.49999999999999600, -17.50000000000000700, 3.000000000000000000 ) ) ;
#211 = ORIENTED_EDGE ( 'NONE', *, *, #95, .F. ) ;
#212 = LINE ( 'NONE', #157, #32 ) ;
#213 = APPROVAL_STATUS ( 'not_yet_approved' ) ;
#214 = LINE ( 'NONE', #193, #110 ) ;
#215 = CC_DESIGN_DATE_AND_TIME_ASSIGNMENT ( #24, #109, ( #57 ) ) ;
#216 = EDGE_LOOP ( 'NONE', ( #41, #21, #115, #136 ) ) ;
#217 = APPROVAL ( #38, 'UNSPECIFIED' ) ;
#218 = EDGE_LOOP ( 'NONE', ( #120, #164, #75, #73 ) ) ;
#219 = EDGE_CURVE ( 'NONE', #153, #94, #103, .T. ) ;
#220 = CARTESIAN_POINT ( 'NONE',  ( 17.49999999999999600, 17.50000000000000000, 3.000000000000000000 ) ) ;
#221 = CARTESIAN_POINT ( 'NONE',  ( -17.50000000000000000, 17.49999999999999600, 3.000000000000000000 ) ) ;
#222 = COORDINATED_UNIVERSAL_TIME_OFFSET ( 5, 0, .BEHIND. ) ;
#223 = ORGANIZATION ( 'UNSPECIFIED', 'UNSPECIFIED', '' ) ;
#224 = DESIGN_CONTEXT ( 'detailed design', #92, 'design' ) ;
#225 =( LENGTH_UNIT ( ) NAMED_UNIT ( * ) SI_UNIT ( .MILLI., .METRE. ) );
#226 = APPROVAL ( #213, 'UNSPECIFIED' ) ;
#227 = DIRECTION ( 'NONE',  ( -1.982541115402065100E-016, 1.000000000000000000, -0.0000000000000000000 ) ) ;
#228 = VERTEX_POINT ( 'NONE', #10 ) ;
#229 = CARTESIAN_POINT ( 'NONE',  ( -17.50000000000000000, 17.49999999999999600, 3.000000000000000000 ) ) ;
#230 = PERSON_AND_ORGANIZATION_ROLE ( 'creator' ) ;
#231 = DATE_AND_TIME ( #125, #176 ) ;
#232 = AXIS2_PLACEMENT_3D ( 'NONE', #51, #111, #140 ) ;
#233 = AXIS2_PLACEMENT_3D ( 'NONE', #148, #79, #186 ) ;
#234 = CC_DESIGN_SECURITY_CLASSIFICATION ( #57, ( #199 ) ) ;
#235 = ORIENTED_EDGE ( 'NONE', *, *, #201, .T. ) ;
#236 = CC_DESIGN_APPROVAL ( #195, ( #181 ) ) ;
#237 = AXIS2_PLACEMENT_3D ( 'NONE', #7, #48, #207 ) ;
ENDSEC;
END-ISO-10303-21;
