ISO-10303-21;
HEADER;
FILE_DESCRIPTION (( 'STEP AP203' ),
    '1' );
FILE_NAME ('Web Model 45578.STEP',
    '2017-01-31T15:18:02',
    ( '' ),
    ( '' ),
    'SwSTEP 2.0',
    'SolidWorks 2016',
    '' );
FILE_SCHEMA (( 'CONFIG_CONTROL_DESIGN' ));
ENDSEC;

DATA;
#1 = CARTESIAN_POINT ( 'NONE',  ( 0.0000000000000000000, 0.0000000000000000000, -3.000000000000000000 ) ) ;
#2 = DATE_AND_TIME ( #117, #14 ) ;
#3 = ORIENTED_EDGE ( 'NONE', *, *, #32, .F. ) ;
#4 = CC_DESIGN_APPROVAL ( #148, ( #133 ) ) ;
#5 = AXIS2_PLACEMENT_3D ( 'NONE', #13, #143, #64 ) ;
#6 = EDGE_CURVE ( 'NONE', #122, #85, #149, .T. ) ;
#7 =( LENGTH_UNIT ( ) NAMED_UNIT ( * ) SI_UNIT ( .MILLI., .METRE. ) );
#8 = ORIENTED_EDGE ( 'NONE', *, *, #169, .T. ) ;
#9 = CYLINDRICAL_SURFACE ( 'NONE', #110, 10.00000000000000000 ) ;
#10 = CC_DESIGN_DATE_AND_TIME_ASSIGNMENT ( #166, #59, ( #133 ) ) ;
#11 = DIRECTION ( 'NONE',  ( 0.0000000000000000000, 0.0000000000000000000, 1.000000000000000000 ) ) ;
#12 = DIRECTION ( 'NONE',  ( 0.0000000000000000000, 0.0000000000000000000, 1.000000000000000000 ) ) ;
#13 = CARTESIAN_POINT ( 'NONE',  ( 0.0000000000000000000, 0.0000000000000000000, -3.000000000000000000 ) ) ;
#14 = LOCAL_TIME ( 10, 18, 2.000000000000000000, #33 ) ;
#15 = APPROVAL ( #170, 'UNSPECIFIED' ) ;
#16 = VERTEX_POINT ( 'NONE', #36 ) ;
#17 = EDGE_LOOP ( 'NONE', ( #130, #8 ) ) ;
#18 = CC_DESIGN_PERSON_AND_ORGANIZATION_ASSIGNMENT ( #147, #87, ( #48 ) ) ;
#19 = DATE_TIME_ROLE ( 'creation_date' ) ;
#20 = LOCAL_TIME ( 10, 18, 2.000000000000000000, #93 ) ;
#21 = ADVANCED_BREP_SHAPE_REPRESENTATION ( 'Web Model 45578', ( #152, #86 ), #77 ) ;
#22 = AXIS2_PLACEMENT_3D ( 'NONE', #54, #153, #45 ) ;
#23 = DIRECTION ( 'NONE',  ( 0.0000000000000000000, 0.0000000000000000000, 1.000000000000000000 ) ) ;
#24 = VECTOR ( 'NONE', #106, 1000.000000000000000 ) ;
#25 = FACE_OUTER_BOUND ( 'NONE', #88, .T. ) ;
#26 = AXIS2_PLACEMENT_3D ( 'NONE', #1, #114, #49 ) ;
#27 = CLOSED_SHELL ( 'NONE', ( #79, #141, #101, #173 ) ) ;
#28 = VECTOR ( 'NONE', #111, 1000.000000000000000 ) ;
#29 =( NAMED_UNIT ( * ) PLANE_ANGLE_UNIT ( ) SI_UNIT ( $, .RADIAN. ) );
#30 = APPROVAL_ROLE ( '' ) ;
#31 = DIRECTION ( 'NONE',  ( 1.000000000000000000, 0.0000000000000000000, -0.0000000000000000000 ) ) ;
#32 = EDGE_CURVE ( 'NONE', #85, #122, #96, .T. ) ;
#33 = COORDINATED_UNIVERSAL_TIME_OFFSET ( 5, 0, .BEHIND. ) ;
#34 = ORIENTED_EDGE ( 'NONE', *, *, #40, .F. ) ;
#35 = CARTESIAN_POINT ( 'NONE',  ( 0.0000000000000000000, 0.0000000000000000000, -3.000000000000000000 ) ) ;
#36 = CARTESIAN_POINT ( 'NONE',  ( 10.00000000000000000, 0.0000000000000000000, 0.0000000000000000000 ) ) ;
#37 = AXIS2_PLACEMENT_3D ( 'NONE', #82, #23, #31 ) ;
#38 = LOCAL_TIME ( 10, 18, 2.000000000000000000, #108 ) ;
#39 = EDGE_LOOP ( 'NONE', ( #47, #134, #109, #34 ) ) ;
#40 = EDGE_CURVE ( 'NONE', #85, #16, #62, .T. ) ;
#41 = PERSON_AND_ORGANIZATION ( #97, #160 ) ;
#42 = DESIGN_CONTEXT ( 'detailed design', #99, 'design' ) ;
#43 = PERSON_AND_ORGANIZATION_ROLE ( 'design_supplier' ) ;
#44 = DIRECTION ( 'NONE',  ( 1.000000000000000000, 0.0000000000000000000, 0.0000000000000000000 ) ) ;
#45 = DIRECTION ( 'NONE',  ( 1.000000000000000000, 0.0000000000000000000, 0.0000000000000000000 ) ) ;
#46 = COORDINATED_UNIVERSAL_TIME_OFFSET ( 5, 0, .BEHIND. ) ;
#47 = ORIENTED_EDGE ( 'NONE', *, *, #32, .T. ) ;
#48 = PRODUCT_DEFINITION_FORMATION_WITH_SPECIFIED_SOURCE ( 'ANY', '', #55, .NOT_KNOWN. ) ;
#49 = DIRECTION ( 'NONE',  ( 1.000000000000000000, 0.0000000000000000000, 0.0000000000000000000 ) ) ;
#50 = LOCAL_TIME ( 10, 18, 2.000000000000000000, #46 ) ;
#51 = VERTEX_POINT ( 'NONE', #89 ) ;
#52 = LOCAL_TIME ( 10, 18, 2.000000000000000000, #164 ) ;
#53 = CC_DESIGN_APPROVAL ( #129, ( #48 ) ) ;
#54 = CARTESIAN_POINT ( 'NONE',  ( 0.0000000000000000000, 0.0000000000000000000, 0.0000000000000000000 ) ) ;
#55 = PRODUCT ( 'Web Model 45578', 'Web Model 45578', '', ( #168 ) ) ;
#56 = APPROVAL_STATUS ( 'not_yet_approved' ) ;
#57 = CARTESIAN_POINT ( 'NONE',  ( 0.0000000000000000000, 0.0000000000000000000, 0.0000000000000000000 ) ) ;
#58 = PERSON_AND_ORGANIZATION ( #97, #160 ) ;
#59 = DATE_TIME_ROLE ( 'classification_date' ) ;
#60 = EDGE_CURVE ( 'NONE', #16, #51, #113, .T. ) ;
#61 = APPROVAL_DATE_TIME ( #103, #148 ) ;
#62 = LINE ( 'NONE', #175, #24 ) ;
#63 = DIRECTION ( 'NONE',  ( 0.0000000000000000000, 0.0000000000000000000, 1.000000000000000000 ) ) ;
#64 = DIRECTION ( 'NONE',  ( 1.000000000000000000, 0.0000000000000000000, 0.0000000000000000000 ) ) ;
#65 = CC_DESIGN_DATE_AND_TIME_ASSIGNMENT ( #2, #19, ( #163 ) ) ;
#66 = PERSON_AND_ORGANIZATION ( #97, #160 ) ;
#67 = EDGE_LOOP ( 'NONE', ( #3, #174 ) ) ;
#68 = LINE ( 'NONE', #115, #28 ) ;
#69 = DATE_AND_TIME ( #139, #50 ) ;
#70 = CALENDAR_DATE ( 2017, 31, 1 ) ;
#71 = ORIENTED_EDGE ( 'NONE', *, *, #169, .F. ) ;
#72 = APPROVAL_ROLE ( '' ) ;
#73 = SECURITY_CLASSIFICATION_LEVEL ( 'unclassified' ) ;
#74 = APPLICATION_PROTOCOL_DEFINITION ( 'international standard', 'config_control_design', 1994, #99 ) ;
#75 = APPROVAL_ROLE ( '' ) ;
#76 = APPROVAL_DATE_TIME ( #83, #129 ) ;
#77 =( GEOMETRIC_REPRESENTATION_CONTEXT ( 3 ) GLOBAL_UNCERTAINTY_ASSIGNED_CONTEXT ( ( #120 ) ) GLOBAL_UNIT_ASSIGNED_CONTEXT ( ( #7, #29, #136 ) ) REPRESENTATION_CONTEXT ( 'NONE', 'WORKASPACE' ) );
#78 = ORIENTED_EDGE ( 'NONE', *, *, #123, .F. ) ;
#79 = ADVANCED_FACE ( 'NONE', ( #84 ), #9, .T. ) ;
#80 = DIRECTION ( 'NONE',  ( 1.000000000000000000, 0.0000000000000000000, 0.0000000000000000000 ) ) ;
#81 = DIRECTION ( 'NONE',  ( 0.0000000000000000000, 0.0000000000000000000, 1.000000000000000000 ) ) ;
#82 = CARTESIAN_POINT ( 'NONE',  ( 0.0000000000000000000, 0.0000000000000000000, 0.0000000000000000000 ) ) ;
#83 = DATE_AND_TIME ( #128, #52 ) ;
#84 = FACE_OUTER_BOUND ( 'NONE', #39, .T. ) ;
#85 = VERTEX_POINT ( 'NONE', #116 ) ;
#86 = AXIS2_PLACEMENT_3D ( 'NONE', #57, #112, #44 ) ;
#87 = PERSON_AND_ORGANIZATION_ROLE ( 'creator' ) ;
#88 = EDGE_LOOP ( 'NONE', ( #78, #156, #104, #71 ) ) ;
#89 = CARTESIAN_POINT ( 'NONE',  ( -10.00000000000000000, 1.224646799147353300E-015, 0.0000000000000000000 ) ) ;
#90 = CYLINDRICAL_SURFACE ( 'NONE', #26, 10.00000000000000000 ) ;
#91 = DIRECTION ( 'NONE',  ( 1.000000000000000000, 0.0000000000000000000, 0.0000000000000000000 ) ) ;
#92 = DIRECTION ( 'NONE',  ( 1.000000000000000000, 0.0000000000000000000, 0.0000000000000000000 ) ) ;
#93 = COORDINATED_UNIVERSAL_TIME_OFFSET ( 5, 0, .BEHIND. ) ;
#94 = CC_DESIGN_PERSON_AND_ORGANIZATION_ASSIGNMENT ( #58, #138, ( #133 ) ) ;
#95 = PERSON_AND_ORGANIZATION ( #97, #160 ) ;
#96 = CIRCLE ( 'NONE', #142, 10.00000000000000000 ) ;
#97 = PERSON ( 'UNSPECIFIED', 'UNSPECIFIED', 'UNSPECIFIED', ('UNSPECIFIED'), ('UNSPECIFIED'), ('UNSPECIFIED') ) ;
#98 = PERSON_AND_ORGANIZATION_ROLE ( 'design_owner' ) ;
#99 = APPLICATION_CONTEXT ( 'configuration controlled 3d designs of mechanical parts and assemblies' ) ;
#100 = AXIS2_PLACEMENT_3D ( 'NONE', #158, #81, #92 ) ;
#101 = ADVANCED_FACE ( 'NONE', ( #135 ), #105, .F. ) ;
#102 = CC_DESIGN_SECURITY_CLASSIFICATION ( #133, ( #48 ) ) ;
#103 = DATE_AND_TIME ( #140, #38 ) ;
#104 = ORIENTED_EDGE ( 'NONE', *, *, #40, .T. ) ;
#105 = PLANE ( 'NONE',  #107 ) ;
#106 = DIRECTION ( 'NONE',  ( 0.0000000000000000000, 0.0000000000000000000, 1.000000000000000000 ) ) ;
#107 = AXIS2_PLACEMENT_3D ( 'NONE', #35, #12, #126 ) ;
#108 = COORDINATED_UNIVERSAL_TIME_OFFSET ( 5, 0, .BEHIND. ) ;
#109 = ORIENTED_EDGE ( 'NONE', *, *, #60, .F. ) ;
#110 = AXIS2_PLACEMENT_3D ( 'NONE', #161, #11, #91 ) ;
#111 = DIRECTION ( 'NONE',  ( 0.0000000000000000000, 0.0000000000000000000, 1.000000000000000000 ) ) ;
#112 = DIRECTION ( 'NONE',  ( 0.0000000000000000000, 0.0000000000000000000, 1.000000000000000000 ) ) ;
#113 = CIRCLE ( 'NONE', #100, 10.00000000000000000 ) ;
#114 = DIRECTION ( 'NONE',  ( 0.0000000000000000000, 0.0000000000000000000, 1.000000000000000000 ) ) ;
#115 = CARTESIAN_POINT ( 'NONE',  ( -10.00000000000000000, 1.224646799147353300E-015, -3.000000000000000000 ) ) ;
#116 = CARTESIAN_POINT ( 'NONE',  ( 10.00000000000000000, 0.0000000000000000000, -3.000000000000000000 ) ) ;
#117 = CALENDAR_DATE ( 2017, 31, 1 ) ;
#118 = PLANE ( 'NONE',  #37 ) ;
#119 = CC_DESIGN_PERSON_AND_ORGANIZATION_ASSIGNMENT ( #150, #98, ( #55 ) ) ;
#120 = UNCERTAINTY_MEASURE_WITH_UNIT (LENGTH_MEASURE( 1.000000000000000100E-005 ), #7, 'distance_accuracy_value', 'NONE');
#121 = CC_DESIGN_PERSON_AND_ORGANIZATION_ASSIGNMENT ( #162, #124, ( #163 ) ) ;
#122 = VERTEX_POINT ( 'NONE', #127 ) ;
#123 = EDGE_CURVE ( 'NONE', #122, #51, #68, .T. ) ;
#124 = PERSON_AND_ORGANIZATION_ROLE ( 'creator' ) ;
#125 = CC_DESIGN_APPROVAL ( #15, ( #163 ) ) ;
#126 = DIRECTION ( 'NONE',  ( 1.000000000000000000, 0.0000000000000000000, -0.0000000000000000000 ) ) ;
#127 = CARTESIAN_POINT ( 'NONE',  ( -10.00000000000000000, 1.224646799147353300E-015, -3.000000000000000000 ) ) ;
#128 = CALENDAR_DATE ( 2017, 31, 1 ) ;
#129 = APPROVAL ( #56, 'UNSPECIFIED' ) ;
#130 = ORIENTED_EDGE ( 'NONE', *, *, #60, .T. ) ;
#131 = FACE_OUTER_BOUND ( 'NONE', #17, .T. ) ;
#132 = APPROVAL_PERSON_ORGANIZATION ( #146, #15, #30 ) ;
#133 = SECURITY_CLASSIFICATION ( '', '', #73 ) ;
#134 = ORIENTED_EDGE ( 'NONE', *, *, #123, .T. ) ;
#135 = FACE_OUTER_BOUND ( 'NONE', #67, .T. ) ;
#136 =( NAMED_UNIT ( * ) SI_UNIT ( $, .STERADIAN. ) SOLID_ANGLE_UNIT ( ) );
#137 = APPLICATION_CONTEXT ( 'configuration controlled 3d designs of mechanical parts and assemblies' ) ;
#138 = PERSON_AND_ORGANIZATION_ROLE ( 'classification_officer' ) ;
#139 = CALENDAR_DATE ( 2017, 31, 1 ) ;
#140 = CALENDAR_DATE ( 2017, 31, 1 ) ;
#141 = ADVANCED_FACE ( 'NONE', ( #25 ), #90, .T. ) ;
#142 = AXIS2_PLACEMENT_3D ( 'NONE', #159, #63, #80 ) ;
#143 = DIRECTION ( 'NONE',  ( 0.0000000000000000000, 0.0000000000000000000, 1.000000000000000000 ) ) ;
#144 = APPROVAL_PERSON_ORGANIZATION ( #41, #129, #72 ) ;
#145 = APPROVAL_PERSON_ORGANIZATION ( #66, #148, #75 ) ;
#146 = PERSON_AND_ORGANIZATION ( #97, #160 ) ;
#147 = PERSON_AND_ORGANIZATION ( #97, #160 ) ;
#148 = APPROVAL ( #154, 'UNSPECIFIED' ) ;
#149 = CIRCLE ( 'NONE', #5, 10.00000000000000000 ) ;
#150 = PERSON_AND_ORGANIZATION ( #97, #160 ) ;
#151 = APPLICATION_PROTOCOL_DEFINITION ( 'international standard', 'config_control_design', 1994, #137 ) ;
#152 = MANIFOLD_SOLID_BREP ( 'Extrude1', #27 ) ;
#153 = DIRECTION ( 'NONE',  ( 0.0000000000000000000, 0.0000000000000000000, 1.000000000000000000 ) ) ;
#154 = APPROVAL_STATUS ( 'not_yet_approved' ) ;
#155 = APPROVAL_DATE_TIME ( #69, #15 ) ;
#156 = ORIENTED_EDGE ( 'NONE', *, *, #6, .T. ) ;
#157 = PRODUCT_RELATED_PRODUCT_CATEGORY ( 'detail', '', ( #55 ) ) ;
#158 = CARTESIAN_POINT ( 'NONE',  ( 0.0000000000000000000, 0.0000000000000000000, 0.0000000000000000000 ) ) ;
#159 = CARTESIAN_POINT ( 'NONE',  ( 0.0000000000000000000, 0.0000000000000000000, -3.000000000000000000 ) ) ;
#160 = ORGANIZATION ( 'UNSPECIFIED', 'UNSPECIFIED', '' ) ;
#161 = CARTESIAN_POINT ( 'NONE',  ( 0.0000000000000000000, 0.0000000000000000000, -3.000000000000000000 ) ) ;
#162 = PERSON_AND_ORGANIZATION ( #97, #160 ) ;
#163 = PRODUCT_DEFINITION ( 'UNKNOWN', '', #48, #42 ) ;
#164 = COORDINATED_UNIVERSAL_TIME_OFFSET ( 5, 0, .BEHIND. ) ;
#165 = PRODUCT_DEFINITION_SHAPE ( 'NONE', 'NONE',  #163 ) ;
#166 = DATE_AND_TIME ( #70, #20 ) ;
#167 = CIRCLE ( 'NONE', #22, 10.00000000000000000 ) ;
#168 = MECHANICAL_CONTEXT ( 'NONE', #137, 'mechanical' ) ;
#169 = EDGE_CURVE ( 'NONE', #51, #16, #167, .T. ) ;
#170 = APPROVAL_STATUS ( 'not_yet_approved' ) ;
#171 = CC_DESIGN_PERSON_AND_ORGANIZATION_ASSIGNMENT ( #95, #43, ( #48 ) ) ;
#172 = SHAPE_DEFINITION_REPRESENTATION ( #165, #21 ) ;
#173 = ADVANCED_FACE ( 'NONE', ( #131 ), #118, .T. ) ;
#174 = ORIENTED_EDGE ( 'NONE', *, *, #6, .F. ) ;
#175 = CARTESIAN_POINT ( 'NONE',  ( 10.00000000000000000, 0.0000000000000000000, -3.000000000000000000 ) ) ;
ENDSEC;
END-ISO-10303-21;
