ISO-10303-21;
HEADER;
FILE_DESCRIPTION (( 'STEP AP203' ),
    '1' );
FILE_NAME ('Web Model 63211.STEP',
    '2017-01-31T18:45:40',
    ( '' ),
    ( '' ),
    'SwSTEP 2.0',
    'SolidWorks 2016',
    '' );
FILE_SCHEMA (( 'CONFIG_CONTROL_DESIGN' ));
ENDSEC;

DATA;
#1 = ADVANCED_FACE ( 'NONE', ( #108 ), #34, .T. ) ;
#2 = CC_DESIGN_PERSON_AND_ORGANIZATION_ASSIGNMENT ( #76, #173, ( #36 ) ) ;
#3 = CYLINDRICAL_SURFACE ( 'NONE', #122, 15.00000000000000000 ) ;
#4 = ORIENTED_EDGE ( 'NONE', *, *, #51, .T. ) ;
#5 = COORDINATED_UNIVERSAL_TIME_OFFSET ( 5, 0, .BEHIND. ) ;
#6 = CARTESIAN_POINT ( 'NONE',  ( 0.0000000000000000000, 0.0000000000000000000, 3.000000000000000000 ) ) ;
#7 = CLOSED_SHELL ( 'NONE', ( #1, #20, #30, #77 ) ) ;
#8 = CC_DESIGN_APPROVAL ( #101, ( #149 ) ) ;
#9 =( LENGTH_UNIT ( ) NAMED_UNIT ( * ) SI_UNIT ( .MILLI., .METRE. ) );
#10 = DATE_TIME_ROLE ( 'creation_date' ) ;
#11 = MANIFOLD_SOLID_BREP ( 'Extrude1', #7 ) ;
#12 = AXIS2_PLACEMENT_3D ( 'NONE', #140, #59, #141 ) ;
#13 = EDGE_CURVE ( 'NONE', #165, #67, #66, .T. ) ;
#14 = SECURITY_CLASSIFICATION ( '', '', #79 ) ;
#15 = CARTESIAN_POINT ( 'NONE',  ( 0.0000000000000000000, 0.0000000000000000000, 0.0000000000000000000 ) ) ;
#16 = DATE_TIME_ROLE ( 'classification_date' ) ;
#17 = APPROVAL_STATUS ( 'not_yet_approved' ) ;
#18 = CARTESIAN_POINT ( 'NONE',  ( -15.00000000000000000, 0.0000000000000000000, 3.000000000000000000 ) ) ;
#19 = LOCAL_TIME ( 13, 45, 40.00000000000000000, #71 ) ;
#20 = ADVANCED_FACE ( 'NONE', ( #78 ), #3, .T. ) ;
#21 = ORIENTED_EDGE ( 'NONE', *, *, #135, .F. ) ;
#22 = EDGE_CURVE ( 'NONE', #82, #110, #104, .T. ) ;
#23 = CC_DESIGN_PERSON_AND_ORGANIZATION_ASSIGNMENT ( #150, #91, ( #14 ) ) ;
#24 = ORIENTED_EDGE ( 'NONE', *, *, #27, .F. ) ;
#25 = ORIENTED_EDGE ( 'NONE', *, *, #142, .F. ) ;
#26 = EDGE_LOOP ( 'NONE', ( #84, #25, #111, #93 ) ) ;
#27 = EDGE_CURVE ( 'NONE', #110, #82, #39, .T. ) ;
#28 = DIRECTION ( 'NONE',  ( 1.000000000000000000, 0.0000000000000000000, 0.0000000000000000000 ) ) ;
#29 = APPROVAL_STATUS ( 'not_yet_approved' ) ;
#30 = ADVANCED_FACE ( 'NONE', ( #138 ), #169, .T. ) ;
#31 = APPROVAL_STATUS ( 'not_yet_approved' ) ;
#32 = APPROVAL_ROLE ( '' ) ;
#33 = APPROVAL ( #29, 'UNSPECIFIED' ) ;
#34 = CYLINDRICAL_SURFACE ( 'NONE', #154, 15.00000000000000000 ) ;
#35 = UNCERTAINTY_MEASURE_WITH_UNIT (LENGTH_MEASURE( 1.000000000000000100E-005 ), #9, 'distance_accuracy_value', 'NONE');
#36 = PRODUCT_DEFINITION ( 'UNKNOWN', '', #149, #121 ) ;
#37 = ORIENTED_EDGE ( 'NONE', *, *, #22, .T. ) ;
#38 = AXIS2_PLACEMENT_3D ( 'NONE', #15, #46, #28 ) ;
#39 = CIRCLE ( 'NONE', #38, 15.00000000000000000 ) ;
#40 = AXIS2_PLACEMENT_3D ( 'NONE', #75, #107, #74 ) ;
#41 = DIRECTION ( 'NONE',  ( 0.0000000000000000000, 0.0000000000000000000, 1.000000000000000000 ) ) ;
#42 = CARTESIAN_POINT ( 'NONE',  ( 15.00000000000000000, 1.836970198721029600E-015, 3.000000000000000000 ) ) ;
#43 = CARTESIAN_POINT ( 'NONE',  ( 0.0000000000000000000, 0.0000000000000000000, 0.0000000000000000000 ) ) ;
#44 = CALENDAR_DATE ( 2017, 31, 1 ) ;
#45 = PERSON_AND_ORGANIZATION ( #126, #136 ) ;
#46 = DIRECTION ( 'NONE',  ( 0.0000000000000000000, 0.0000000000000000000, 1.000000000000000000 ) ) ;
#47 = DIRECTION ( 'NONE',  ( 0.0000000000000000000, 0.0000000000000000000, 1.000000000000000000 ) ) ;
#48 = AXIS2_PLACEMENT_3D ( 'NONE', #88, #41, #139 ) ;
#49 = APPROVAL_ROLE ( '' ) ;
#50 = APPROVAL_DATE_TIME ( #124, #101 ) ;
#51 = EDGE_CURVE ( 'NONE', #165, #82, #114, .T. ) ;
#52 = LOCAL_TIME ( 13, 45, 40.00000000000000000, #95 ) ;
#53 = CALENDAR_DATE ( 2017, 31, 1 ) ;
#54 = ORIENTED_EDGE ( 'NONE', *, *, #22, .F. ) ;
#55 = CC_DESIGN_APPROVAL ( #33, ( #14 ) ) ;
#56 = AXIS2_PLACEMENT_3D ( 'NONE', #161, #47, #172 ) ;
#57 = DATE_AND_TIME ( #120, #52 ) ;
#58 = DIRECTION ( 'NONE',  ( -0.0000000000000000000, -0.0000000000000000000, -1.000000000000000000 ) ) ;
#59 = DIRECTION ( 'NONE',  ( 0.0000000000000000000, 0.0000000000000000000, 1.000000000000000000 ) ) ;
#60 = DIRECTION ( 'NONE',  ( -0.0000000000000000000, -0.0000000000000000000, -1.000000000000000000 ) ) ;
#61 = APPLICATION_CONTEXT ( 'configuration controlled 3d designs of mechanical parts and assemblies' ) ;
#62 = PERSON_AND_ORGANIZATION ( #126, #136 ) ;
#63 = ORIENTED_EDGE ( 'NONE', *, *, #142, .T. ) ;
#64 =( GEOMETRIC_REPRESENTATION_CONTEXT ( 3 ) GLOBAL_UNCERTAINTY_ASSIGNED_CONTEXT ( ( #35 ) ) GLOBAL_UNIT_ASSIGNED_CONTEXT ( ( #9, #105, #103 ) ) REPRESENTATION_CONTEXT ( 'NONE', 'WORKASPACE' ) );
#65 = EDGE_LOOP ( 'NONE', ( #24, #54 ) ) ;
#66 = CIRCLE ( 'NONE', #80, 15.00000000000000000 ) ;
#67 = VERTEX_POINT ( 'NONE', #128 ) ;
#68 = DIRECTION ( 'NONE',  ( -0.0000000000000000000, -0.0000000000000000000, -1.000000000000000000 ) ) ;
#69 = CARTESIAN_POINT ( 'NONE',  ( -15.00000000000000000, 0.0000000000000000000, 0.0000000000000000000 ) ) ;
#70 = CC_DESIGN_SECURITY_CLASSIFICATION ( #14, ( #149 ) ) ;
#71 = COORDINATED_UNIVERSAL_TIME_OFFSET ( 5, 0, .BEHIND. ) ;
#72 = PLANE ( 'NONE',  #12 ) ;
#73 = PRODUCT_DEFINITION_SHAPE ( 'NONE', 'NONE',  #36 ) ;
#74 = DIRECTION ( 'NONE',  ( 1.000000000000000000, 0.0000000000000000000, 0.0000000000000000000 ) ) ;
#75 = CARTESIAN_POINT ( 'NONE',  ( 0.0000000000000000000, 0.0000000000000000000, 0.0000000000000000000 ) ) ;
#76 = PERSON_AND_ORGANIZATION ( #126, #136 ) ;
#77 = ADVANCED_FACE ( 'NONE', ( #125 ), #72, .F. ) ;
#78 = FACE_OUTER_BOUND ( 'NONE', #26, .T. ) ;
#79 = SECURITY_CLASSIFICATION_LEVEL ( 'unclassified' ) ;
#80 = AXIS2_PLACEMENT_3D ( 'NONE', #6, #156, #99 ) ;
#81 = SHAPE_DEFINITION_REPRESENTATION ( #73, #157 ) ;
#82 = VERTEX_POINT ( 'NONE', #159 ) ;
#83 = LOCAL_TIME ( 13, 45, 40.00000000000000000, #164 ) ;
#84 = ORIENTED_EDGE ( 'NONE', *, *, #51, .F. ) ;
#85 = PRODUCT_RELATED_PRODUCT_CATEGORY ( 'detail', '', ( #97 ) ) ;
#86 = APPROVAL_PERSON_ORGANIZATION ( #123, #33, #32 ) ;
#87 = COORDINATED_UNIVERSAL_TIME_OFFSET ( 5, 0, .BEHIND. ) ;
#88 = CARTESIAN_POINT ( 'NONE',  ( 0.0000000000000000000, 0.0000000000000000000, 3.000000000000000000 ) ) ;
#89 = APPROVAL_ROLE ( '' ) ;
#90 = PERSON_AND_ORGANIZATION_ROLE ( 'design_owner' ) ;
#91 = PERSON_AND_ORGANIZATION_ROLE ( 'classification_officer' ) ;
#92 = PERSON_AND_ORGANIZATION ( #126, #136 ) ;
#93 = ORIENTED_EDGE ( 'NONE', *, *, #27, .T. ) ;
#94 = APPROVAL ( #17, 'UNSPECIFIED' ) ;
#95 = COORDINATED_UNIVERSAL_TIME_OFFSET ( 5, 0, .BEHIND. ) ;
#96 = ORIENTED_EDGE ( 'NONE', *, *, #13, .T. ) ;
#97 = PRODUCT ( 'Web Model 63211', 'Web Model 63211', '', ( #132 ) ) ;
#98 = LOCAL_TIME ( 13, 45, 40.00000000000000000, #5 ) ;
#99 = DIRECTION ( 'NONE',  ( 1.000000000000000000, 0.0000000000000000000, 0.0000000000000000000 ) ) ;
#100 = DIRECTION ( 'NONE',  ( 1.000000000000000000, 0.0000000000000000000, 0.0000000000000000000 ) ) ;
#101 = APPROVAL ( #31, 'UNSPECIFIED' ) ;
#102 = APPROVAL_PERSON_ORGANIZATION ( #92, #101, #89 ) ;
#103 =( NAMED_UNIT ( * ) SI_UNIT ( $, .STERADIAN. ) SOLID_ANGLE_UNIT ( ) );
#104 = CIRCLE ( 'NONE', #175, 15.00000000000000000 ) ;
#105 =( NAMED_UNIT ( * ) PLANE_ANGLE_UNIT ( ) SI_UNIT ( $, .RADIAN. ) );
#106 = CC_DESIGN_APPROVAL ( #94, ( #36 ) ) ;
#107 = DIRECTION ( 'NONE',  ( 0.0000000000000000000, 0.0000000000000000000, 1.000000000000000000 ) ) ;
#108 = FACE_OUTER_BOUND ( 'NONE', #158, .T. ) ;
#109 = DATE_AND_TIME ( #153, #19 ) ;
#110 = VERTEX_POINT ( 'NONE', #69 ) ;
#111 = ORIENTED_EDGE ( 'NONE', *, *, #135, .T. ) ;
#112 = PERSON_AND_ORGANIZATION ( #126, #136 ) ;
#113 = CARTESIAN_POINT ( 'NONE',  ( 0.0000000000000000000, 0.0000000000000000000, 3.000000000000000000 ) ) ;
#114 = LINE ( 'NONE', #42, #130 ) ;
#115 = VECTOR ( 'NONE', #145, 1000.000000000000000 ) ;
#116 = CC_DESIGN_PERSON_AND_ORGANIZATION_ASSIGNMENT ( #45, #133, ( #149 ) ) ;
#117 = DATE_AND_TIME ( #143, #83 ) ;
#118 = APPLICATION_CONTEXT ( 'configuration controlled 3d designs of mechanical parts and assemblies' ) ;
#119 = PERSON_AND_ORGANIZATION_ROLE ( 'design_supplier' ) ;
#120 = CALENDAR_DATE ( 2017, 31, 1 ) ;
#121 = DESIGN_CONTEXT ( 'detailed design', #118, 'design' ) ;
#122 = AXIS2_PLACEMENT_3D ( 'NONE', #131, #60, #127 ) ;
#123 = PERSON_AND_ORGANIZATION ( #126, #136 ) ;
#124 = DATE_AND_TIME ( #53, #151 ) ;
#125 = FACE_OUTER_BOUND ( 'NONE', #65, .T. ) ;
#126 = PERSON ( 'UNSPECIFIED', 'UNSPECIFIED', 'UNSPECIFIED', ('UNSPECIFIED'), ('UNSPECIFIED'), ('UNSPECIFIED') ) ;
#127 = DIRECTION ( 'NONE',  ( -1.000000000000000000, 0.0000000000000000000, 0.0000000000000000000 ) ) ;
#128 = CARTESIAN_POINT ( 'NONE',  ( -15.00000000000000000, 0.0000000000000000000, 3.000000000000000000 ) ) ;
#129 = APPROVAL_PERSON_ORGANIZATION ( #62, #94, #49 ) ;
#130 = VECTOR ( 'NONE', #58, 1000.000000000000000 ) ;
#131 = CARTESIAN_POINT ( 'NONE',  ( 0.0000000000000000000, 0.0000000000000000000, 3.000000000000000000 ) ) ;
#132 = MECHANICAL_CONTEXT ( 'NONE', #61, 'mechanical' ) ;
#133 = PERSON_AND_ORGANIZATION_ROLE ( 'creator' ) ;
#134 = APPLICATION_PROTOCOL_DEFINITION ( 'international standard', 'config_control_design', 1994, #118 ) ;
#135 = EDGE_CURVE ( 'NONE', #67, #110, #137, .T. ) ;
#136 = ORGANIZATION ( 'UNSPECIFIED', 'UNSPECIFIED', '' ) ;
#137 = LINE ( 'NONE', #18, #115 ) ;
#138 = FACE_OUTER_BOUND ( 'NONE', #148, .T. ) ;
#139 = DIRECTION ( 'NONE',  ( 1.000000000000000000, 0.0000000000000000000, -0.0000000000000000000 ) ) ;
#140 = CARTESIAN_POINT ( 'NONE',  ( 0.0000000000000000000, 0.0000000000000000000, 0.0000000000000000000 ) ) ;
#141 = DIRECTION ( 'NONE',  ( 1.000000000000000000, 0.0000000000000000000, -0.0000000000000000000 ) ) ;
#142 = EDGE_CURVE ( 'NONE', #67, #165, #166, .T. ) ;
#143 = CALENDAR_DATE ( 2017, 31, 1 ) ;
#144 = DIRECTION ( 'NONE',  ( -1.000000000000000000, 0.0000000000000000000, 0.0000000000000000000 ) ) ;
#145 = DIRECTION ( 'NONE',  ( -0.0000000000000000000, -0.0000000000000000000, -1.000000000000000000 ) ) ;
#146 = DATE_AND_TIME ( #44, #98 ) ;
#147 = APPROVAL_DATE_TIME ( #117, #94 ) ;
#148 = EDGE_LOOP ( 'NONE', ( #63, #96 ) ) ;
#149 = PRODUCT_DEFINITION_FORMATION_WITH_SPECIFIED_SOURCE ( 'ANY', '', #97, .NOT_KNOWN. ) ;
#150 = PERSON_AND_ORGANIZATION ( #126, #136 ) ;
#151 = LOCAL_TIME ( 13, 45, 40.00000000000000000, #87 ) ;
#152 = CC_DESIGN_DATE_AND_TIME_ASSIGNMENT ( #109, #10, ( #36 ) ) ;
#153 = CALENDAR_DATE ( 2017, 31, 1 ) ;
#154 = AXIS2_PLACEMENT_3D ( 'NONE', #113, #68, #144 ) ;
#155 = PERSON_AND_ORGANIZATION ( #126, #136 ) ;
#156 = DIRECTION ( 'NONE',  ( 0.0000000000000000000, 0.0000000000000000000, 1.000000000000000000 ) ) ;
#157 = ADVANCED_BREP_SHAPE_REPRESENTATION ( 'Web Model 63211', ( #11, #40 ), #64 ) ;
#158 = EDGE_LOOP ( 'NONE', ( #168, #4, #37, #21 ) ) ;
#159 = CARTESIAN_POINT ( 'NONE',  ( 15.00000000000000000, 1.836970198721029600E-015, 0.0000000000000000000 ) ) ;
#160 = CC_DESIGN_PERSON_AND_ORGANIZATION_ASSIGNMENT ( #155, #90, ( #97 ) ) ;
#161 = CARTESIAN_POINT ( 'NONE',  ( 0.0000000000000000000, 0.0000000000000000000, 3.000000000000000000 ) ) ;
#162 = CARTESIAN_POINT ( 'NONE',  ( 15.00000000000000000, 1.836970198721029600E-015, 3.000000000000000000 ) ) ;
#163 = CC_DESIGN_PERSON_AND_ORGANIZATION_ASSIGNMENT ( #112, #119, ( #149 ) ) ;
#164 = COORDINATED_UNIVERSAL_TIME_OFFSET ( 5, 0, .BEHIND. ) ;
#165 = VERTEX_POINT ( 'NONE', #162 ) ;
#166 = CIRCLE ( 'NONE', #56, 15.00000000000000000 ) ;
#167 = DIRECTION ( 'NONE',  ( 0.0000000000000000000, 0.0000000000000000000, 1.000000000000000000 ) ) ;
#168 = ORIENTED_EDGE ( 'NONE', *, *, #13, .F. ) ;
#169 = PLANE ( 'NONE',  #48 ) ;
#170 = CC_DESIGN_DATE_AND_TIME_ASSIGNMENT ( #57, #16, ( #14 ) ) ;
#171 = APPROVAL_DATE_TIME ( #146, #33 ) ;
#172 = DIRECTION ( 'NONE',  ( 1.000000000000000000, 0.0000000000000000000, 0.0000000000000000000 ) ) ;
#173 = PERSON_AND_ORGANIZATION_ROLE ( 'creator' ) ;
#174 = APPLICATION_PROTOCOL_DEFINITION ( 'international standard', 'config_control_design', 1994, #61 ) ;
#175 = AXIS2_PLACEMENT_3D ( 'NONE', #43, #167, #100 ) ;
ENDSEC;
END-ISO-10303-21;
