ISO-10303-21;
HEADER;
FILE_DESCRIPTION (( 'STEP AP203' ),
    '1' );
FILE_NAME ('Web Model 36252_16003.step',
    '2020-10-21T18:16:01',
    ( '' ),
    ( '' ),
    'SwSTEP 2.0',
    'SolidWorks 2018',
    '' );
FILE_SCHEMA (( 'CONFIG_CONTROL_DESIGN' ));
ENDSEC;

DATA;
#1 = CIRCLE ( 'NONE', #175, 6.250000000000000000 ) ;
#2 = CC_DESIGN_PERSON_AND_ORGANIZATION_ASSIGNMENT ( #110, #165, ( #130 ) ) ;
#3 = DIRECTION ( 'NONE',  ( -0.0000000000000000000, -0.0000000000000000000, -1.000000000000000000 ) ) ;
#4 = SECURITY_CLASSIFICATION ( '', '', #122 ) ;
#5 = CARTESIAN_POINT ( 'NONE',  ( 0.0000000000000000000, 0.0000000000000000000, 1.000000000000000000 ) ) ;
#6 = ORIENTED_EDGE ( 'NONE', *, *, #36, .F. ) ;
#7 = CARTESIAN_POINT ( 'NONE',  ( 0.0000000000000000000, 0.0000000000000000000, 0.0000000000000000000 ) ) ;
#8 = PERSON_AND_ORGANIZATION_ROLE ( 'design_supplier' ) ;
#9 = APPROVAL_STATUS ( 'not_yet_approved' ) ;
#10 = AXIS2_PLACEMENT_3D ( 'NONE', #59, #146, #42 ) ;
#11 = LOCAL_TIME ( 14, 16, 1.000000000000000000, #84 ) ;
#12 = ORIENTED_EDGE ( 'NONE', *, *, #36, .T. ) ;
#13 = ORIENTED_EDGE ( 'NONE', *, *, #174, .T. ) ;
#14 = PERSON_AND_ORGANIZATION ( #140, #21 ) ;
#15 = CARTESIAN_POINT ( 'NONE',  ( 0.0000000000000000000, 0.0000000000000000000, 0.0000000000000000000 ) ) ;
#16 = CARTESIAN_POINT ( 'NONE',  ( -6.250000000000000000, 0.0000000000000000000, 1.000000000000000000 ) ) ;
#17 = DIRECTION ( 'NONE',  ( -1.000000000000000000, 0.0000000000000000000, 0.0000000000000000000 ) ) ;
#18 = ORIENTED_EDGE ( 'NONE', *, *, #161, .T. ) ;
#19 =( GEOMETRIC_REPRESENTATION_CONTEXT ( 3 ) GLOBAL_UNCERTAINTY_ASSIGNED_CONTEXT ( ( #129 ) ) GLOBAL_UNIT_ASSIGNED_CONTEXT ( ( #71, #106, #166 ) ) REPRESENTATION_CONTEXT ( 'NONE', 'WORKASPACE' ) );
#20 = CARTESIAN_POINT ( 'NONE',  ( 6.250000000000000000, 7.654042494670957606E-16, 1.000000000000000000 ) ) ;
#21 = ORGANIZATION ( 'UNSPECIFIED', 'UNSPECIFIED', '' ) ;
#22 = APPROVAL_ROLE ( '' ) ;
#23 = COORDINATED_UNIVERSAL_TIME_OFFSET ( 5, 0, .BEHIND. ) ;
#24 = VERTEX_POINT ( 'NONE', #128 ) ;
#25 = ORIENTED_EDGE ( 'NONE', *, *, #39, .T. ) ;
#26 = CARTESIAN_POINT ( 'NONE',  ( 0.0000000000000000000, 0.0000000000000000000, 1.000000000000000000 ) ) ;
#27 = APPLICATION_CONTEXT ( 'configuration controlled 3d designs of mechanical parts and assemblies' ) ;
#28 = DATE_AND_TIME ( #117, #133 ) ;
#29 = MANIFOLD_SOLID_BREP ( 'Boss-Extrude1', #62 ) ;
#30 = APPLICATION_PROTOCOL_DEFINITION ( 'international standard', 'config_control_design', 1994, #83 ) ;
#31 = PRODUCT_DEFINITION_FORMATION_WITH_SPECIFIED_SOURCE ( 'ANY', '', #130, .NOT_KNOWN. ) ;
#32 = EDGE_LOOP ( 'NONE', ( #134, #41 ) ) ;
#33 = APPROVAL_ROLE ( '' ) ;
#34 = CC_DESIGN_PERSON_AND_ORGANIZATION_ASSIGNMENT ( #89, #131, ( #61 ) ) ;
#35 = FACE_OUTER_BOUND ( 'NONE', #90, .T. ) ;
#36 = EDGE_CURVE ( 'NONE', #48, #81, #139, .T. ) ;
#37 = LOCAL_TIME ( 14, 16, 1.000000000000000000, #154 ) ;
#38 = CC_DESIGN_PERSON_AND_ORGANIZATION_ASSIGNMENT ( #85, #8, ( #31 ) ) ;
#39 = EDGE_CURVE ( 'NONE', #24, #79, #87, .T. ) ;
#40 = APPROVAL_DATE_TIME ( #75, #113 ) ;
#41 = ORIENTED_EDGE ( 'NONE', *, *, #149, .F. ) ;
#42 = DIRECTION ( 'NONE',  ( 1.000000000000000000, 0.0000000000000000000, -0.0000000000000000000 ) ) ;
#43 = SHAPE_DEFINITION_REPRESENTATION ( #124, #152 ) ;
#44 = LINE ( 'NONE', #20, #107 ) ;
#45 = PLANE ( 'NONE',  #10 ) ;
#46 = DIRECTION ( 'NONE',  ( 0.0000000000000000000, 0.0000000000000000000, 1.000000000000000000 ) ) ;
#47 = AXIS2_PLACEMENT_3D ( 'NONE', #7, #60, #132 ) ;
#48 = VERTEX_POINT ( 'NONE', #142 ) ;
#49 = LOCAL_TIME ( 14, 16, 1.000000000000000000, #155 ) ;
#50 = AXIS2_PLACEMENT_3D ( 'NONE', #26, #82, #17 ) ;
#51 = ORIENTED_EDGE ( 'NONE', *, *, #91, .F. ) ;
#52 = PLANE ( 'NONE',  #116 ) ;
#53 = CALENDAR_DATE ( 2020, 21, 10 ) ;
#54 = CC_DESIGN_APPROVAL ( #158, ( #31 ) ) ;
#55 = DIRECTION ( 'NONE',  ( 0.0000000000000000000, 0.0000000000000000000, 1.000000000000000000 ) ) ;
#56 = AXIS2_PLACEMENT_3D ( 'NONE', #119, #92, #163 ) ;
#57 = PERSON_AND_ORGANIZATION ( #140, #21 ) ;
#58 = DIRECTION ( 'NONE',  ( 1.000000000000000000, 0.0000000000000000000, 0.0000000000000000000 ) ) ;
#59 = CARTESIAN_POINT ( 'NONE',  ( 0.0000000000000000000, 0.0000000000000000000, 1.000000000000000000 ) ) ;
#60 = DIRECTION ( 'NONE',  ( 0.0000000000000000000, 0.0000000000000000000, 1.000000000000000000 ) ) ;
#61 = PRODUCT_DEFINITION ( 'UNKNOWN', '', #31, #171 ) ;
#62 = CLOSED_SHELL ( 'NONE', ( #153, #137, #173, #64 ) ) ;
#63 = ORIENTED_EDGE ( 'NONE', *, *, #149, .T. ) ;
#64 = ADVANCED_FACE ( 'NONE', ( #66 ), #52, .F. ) ;
#65 = CC_DESIGN_SECURITY_CLASSIFICATION ( #4, ( #31 ) ) ;
#66 = FACE_OUTER_BOUND ( 'NONE', #32, .T. ) ;
#67 = DATE_AND_TIME ( #118, #49 ) ;
#68 = DIRECTION ( 'NONE',  ( 1.000000000000000000, 0.0000000000000000000, 0.0000000000000000000 ) ) ;
#69 = CARTESIAN_POINT ( 'NONE',  ( 0.0000000000000000000, 0.0000000000000000000, 0.0000000000000000000 ) ) ;
#70 = DATE_AND_TIME ( #105, #37 ) ;
#71 =( LENGTH_UNIT ( ) NAMED_UNIT ( * ) SI_UNIT ( .MILLI., .METRE. ) );
#72 = FACE_OUTER_BOUND ( 'NONE', #138, .T. ) ;
#73 = DIRECTION ( 'NONE',  ( 0.0000000000000000000, 0.0000000000000000000, 1.000000000000000000 ) ) ;
#74 = DIRECTION ( 'NONE',  ( -1.000000000000000000, 0.0000000000000000000, 0.0000000000000000000 ) ) ;
#75 = DATE_AND_TIME ( #53, #11 ) ;
#76 = PERSON_AND_ORGANIZATION ( #140, #21 ) ;
#77 = CARTESIAN_POINT ( 'NONE',  ( 0.0000000000000000000, 0.0000000000000000000, 0.0000000000000000000 ) ) ;
#78 = DIRECTION ( 'NONE',  ( 1.000000000000000000, 0.0000000000000000000, -0.0000000000000000000 ) ) ;
#79 = VERTEX_POINT ( 'NONE', #94 ) ;
#80 = APPROVAL_STATUS ( 'not_yet_approved' ) ;
#81 = VERTEX_POINT ( 'NONE', #16 ) ;
#82 = DIRECTION ( 'NONE',  ( -0.0000000000000000000, -0.0000000000000000000, -1.000000000000000000 ) ) ;
#83 = APPLICATION_CONTEXT ( 'configuration controlled 3d designs of mechanical parts and assemblies' ) ;
#84 = COORDINATED_UNIVERSAL_TIME_OFFSET ( 5, 0, .BEHIND. ) ;
#85 = PERSON_AND_ORGANIZATION ( #140, #21 ) ;
#86 = CC_DESIGN_APPROVAL ( #136, ( #4 ) ) ;
#87 = CIRCLE ( 'NONE', #101, 6.250000000000000000 ) ;
#88 = DATE_AND_TIME ( #126, #172 ) ;
#89 = PERSON_AND_ORGANIZATION ( #140, #21 ) ;
#90 = EDGE_LOOP ( 'NONE', ( #6, #18, #63, #51 ) ) ;
#91 = EDGE_CURVE ( 'NONE', #81, #24, #102, .T. ) ;
#92 = DIRECTION ( 'NONE',  ( 0.0000000000000000000, 0.0000000000000000000, 1.000000000000000000 ) ) ;
#93 = APPROVAL_PERSON_ORGANIZATION ( #76, #136, #33 ) ;
#94 = CARTESIAN_POINT ( 'NONE',  ( 6.250000000000000000, 7.654042494670957606E-16, 0.0000000000000000000 ) ) ;
#95 = CARTESIAN_POINT ( 'NONE',  ( 0.0000000000000000000, 0.0000000000000000000, 1.000000000000000000 ) ) ;
#96 = APPLICATION_PROTOCOL_DEFINITION ( 'international standard', 'config_control_design', 1994, #27 ) ;
#97 = CIRCLE ( 'NONE', #47, 6.250000000000000000 ) ;
#98 = PERSON_AND_ORGANIZATION_ROLE ( 'classification_officer' ) ;
#99 = APPROVAL_ROLE ( '' ) ;
#100 = FACE_OUTER_BOUND ( 'NONE', #111, .T. ) ;
#101 = AXIS2_PLACEMENT_3D ( 'NONE', #15, #55, #68 ) ;
#102 = LINE ( 'NONE', #141, #104 ) ;
#103 = COORDINATED_UNIVERSAL_TIME_OFFSET ( 5, 0, .BEHIND. ) ;
#104 = VECTOR ( 'NONE', #3, 1000.000000000000000 ) ;
#105 = CALENDAR_DATE ( 2020, 21, 10 ) ;
#106 =( NAMED_UNIT ( * ) PLANE_ANGLE_UNIT ( ) SI_UNIT ( $, .RADIAN. ) );
#107 = VECTOR ( 'NONE', #167, 1000.000000000000000 ) ;
#108 = DATE_TIME_ROLE ( 'classification_date' ) ;
#109 = APPROVAL_STATUS ( 'not_yet_approved' ) ;
#110 = PERSON_AND_ORGANIZATION ( #140, #21 ) ;
#111 = EDGE_LOOP ( 'NONE', ( #123, #127, #120, #25 ) ) ;
#112 = AXIS2_PLACEMENT_3D ( 'NONE', #95, #121, #74 ) ;
#113 = APPROVAL ( #80, 'UNSPECIFIED' ) ;
#114 = PERSON_AND_ORGANIZATION ( #140, #21 ) ;
#115 = APPROVAL_PERSON_ORGANIZATION ( #14, #113, #99 ) ;
#116 = AXIS2_PLACEMENT_3D ( 'NONE', #77, #162, #78 ) ;
#117 = CALENDAR_DATE ( 2020, 21, 10 ) ;
#118 = CALENDAR_DATE ( 2020, 21, 10 ) ;
#119 = CARTESIAN_POINT ( 'NONE',  ( 0.0000000000000000000, 0.0000000000000000000, 1.000000000000000000 ) ) ;
#120 = ORIENTED_EDGE ( 'NONE', *, *, #91, .T. ) ;
#121 = DIRECTION ( 'NONE',  ( -0.0000000000000000000, -0.0000000000000000000, -1.000000000000000000 ) ) ;
#122 = SECURITY_CLASSIFICATION_LEVEL ( 'unclassified' ) ;
#123 = ORIENTED_EDGE ( 'NONE', *, *, #161, .F. ) ;
#124 = PRODUCT_DEFINITION_SHAPE ( 'NONE', 'NONE',  #61 ) ;
#125 = PRODUCT_RELATED_PRODUCT_CATEGORY ( 'detail', '', ( #130 ) ) ;
#126 = CALENDAR_DATE ( 2020, 21, 10 ) ;
#127 = ORIENTED_EDGE ( 'NONE', *, *, #174, .F. ) ;
#128 = CARTESIAN_POINT ( 'NONE',  ( -6.250000000000000000, 0.0000000000000000000, 0.0000000000000000000 ) ) ;
#129 = UNCERTAINTY_MEASURE_WITH_UNIT (LENGTH_MEASURE( 1.000000000000000082E-05 ), #71, 'distance_accuracy_value', 'NONE');
#130 = PRODUCT ( 'Web Model 36252_16003', 'Web Model 36252_16003', '', ( #148 ) ) ;
#131 = PERSON_AND_ORGANIZATION_ROLE ( 'creator' ) ;
#132 = DIRECTION ( 'NONE',  ( 1.000000000000000000, 0.0000000000000000000, 0.0000000000000000000 ) ) ;
#133 = LOCAL_TIME ( 14, 16, 1.000000000000000000, #103 ) ;
#134 = ORIENTED_EDGE ( 'NONE', *, *, #39, .F. ) ;
#135 = CYLINDRICAL_SURFACE ( 'NONE', #112, 6.250000000000000000 ) ;
#136 = APPROVAL ( #109, 'UNSPECIFIED' ) ;
#137 = ADVANCED_FACE ( 'NONE', ( #100 ), #145, .T. ) ;
#138 = EDGE_LOOP ( 'NONE', ( #13, #12 ) ) ;
#139 = CIRCLE ( 'NONE', #56, 6.250000000000000000 ) ;
#140 = PERSON ( 'UNSPECIFIED', 'UNSPECIFIED', 'UNSPECIFIED', ('UNSPECIFIED'), ('UNSPECIFIED'), ('UNSPECIFIED') ) ;
#141 = CARTESIAN_POINT ( 'NONE',  ( -6.250000000000000000, 0.0000000000000000000, 1.000000000000000000 ) ) ;
#142 = CARTESIAN_POINT ( 'NONE',  ( 6.250000000000000000, 7.654042494670957606E-16, 1.000000000000000000 ) ) ;
#143 = APPROVAL_PERSON_ORGANIZATION ( #160, #158, #22 ) ;
#144 = DIRECTION ( 'NONE',  ( 1.000000000000000000, 0.0000000000000000000, 0.0000000000000000000 ) ) ;
#145 = CYLINDRICAL_SURFACE ( 'NONE', #50, 6.250000000000000000 ) ;
#146 = DIRECTION ( 'NONE',  ( 0.0000000000000000000, 0.0000000000000000000, 1.000000000000000000 ) ) ;
#147 = CC_DESIGN_DATE_AND_TIME_ASSIGNMENT ( #88, #108, ( #4 ) ) ;
#148 = MECHANICAL_CONTEXT ( 'NONE', #27, 'mechanical' ) ;
#149 = EDGE_CURVE ( 'NONE', #79, #24, #97, .T. ) ;
#150 = DATE_TIME_ROLE ( 'creation_date' ) ;
#151 = AXIS2_PLACEMENT_3D ( 'NONE', #69, #73, #144 ) ;
#152 = ADVANCED_BREP_SHAPE_REPRESENTATION ( 'Web Model 36252_16003', ( #29, #151 ), #19 ) ;
#153 = ADVANCED_FACE ( 'NONE', ( #35 ), #135, .T. ) ;
#154 = COORDINATED_UNIVERSAL_TIME_OFFSET ( 5, 0, .BEHIND. ) ;
#155 = COORDINATED_UNIVERSAL_TIME_OFFSET ( 5, 0, .BEHIND. ) ;
#156 = CC_DESIGN_APPROVAL ( #113, ( #61 ) ) ;
#157 = APPROVAL_DATE_TIME ( #70, #136 ) ;
#158 = APPROVAL ( #9, 'UNSPECIFIED' ) ;
#159 = CC_DESIGN_DATE_AND_TIME_ASSIGNMENT ( #67, #150, ( #61 ) ) ;
#160 = PERSON_AND_ORGANIZATION ( #140, #21 ) ;
#161 = EDGE_CURVE ( 'NONE', #48, #79, #44, .T. ) ;
#162 = DIRECTION ( 'NONE',  ( 0.0000000000000000000, 0.0000000000000000000, 1.000000000000000000 ) ) ;
#163 = DIRECTION ( 'NONE',  ( 1.000000000000000000, 0.0000000000000000000, 0.0000000000000000000 ) ) ;
#164 = APPROVAL_DATE_TIME ( #28, #158 ) ;
#165 = PERSON_AND_ORGANIZATION_ROLE ( 'design_owner' ) ;
#166 =( NAMED_UNIT ( * ) SI_UNIT ( $, .STERADIAN. ) SOLID_ANGLE_UNIT ( ) );
#167 = DIRECTION ( 'NONE',  ( -0.0000000000000000000, -0.0000000000000000000, -1.000000000000000000 ) ) ;
#168 = PERSON_AND_ORGANIZATION_ROLE ( 'creator' ) ;
#169 = CC_DESIGN_PERSON_AND_ORGANIZATION_ASSIGNMENT ( #114, #98, ( #4 ) ) ;
#170 = CC_DESIGN_PERSON_AND_ORGANIZATION_ASSIGNMENT ( #57, #168, ( #31 ) ) ;
#171 = DESIGN_CONTEXT ( 'detailed design', #83, 'design' ) ;
#172 = LOCAL_TIME ( 14, 16, 1.000000000000000000, #23 ) ;
#173 = ADVANCED_FACE ( 'NONE', ( #72 ), #45, .T. ) ;
#174 = EDGE_CURVE ( 'NONE', #81, #48, #1, .T. ) ;
#175 = AXIS2_PLACEMENT_3D ( 'NONE', #5, #46, #58 ) ;
ENDSEC;
END-ISO-10303-21;
