ISO-10303-21;
HEADER;
FILE_DESCRIPTION (( 'STEP AP203' ),
    '1' );
FILE_NAME ('4933-E0W.STEP',
    '2015-07-13T15:21:32',
    ( 'admin' ),
    ( '' ),
    'SwSTEP 2.0',
    'SolidWorks 2014',
    '' );
FILE_SCHEMA (( 'CONFIG_CONTROL_DESIGN' ));
ENDSEC;

DATA;
#1 = DIRECTION ( 'NONE',  ( -1.000000000000000000, 0.0000000000000000000, 0.0000000000000000000 ) ) ;
#2 = AXIS2_PLACEMENT_3D ( 'NONE', #162, #357, #195 ) ;
#3 = CARTESIAN_POINT ( 'NONE',  ( 0.0000000000000000000, 0.0000000000000000000, -58.86240138865708400 ) ) ;
#4 = MANIFOLD_SOLID_BREP ( '4933-001-1-solid1', #28 ) ;
#5 = VERTEX_POINT ( 'NONE', #289 ) ;
#6 = FACE_OUTER_BOUND ( 'NONE', #311, .T. ) ;
#7 = DIRECTION ( 'NONE',  ( -0.0000000000000000000, -0.0000000000000000000, 1.000000000000000000 ) ) ;
#8 = FACE_OUTER_BOUND ( 'NONE', #214, .T. ) ;
#9 = CARTESIAN_POINT ( 'NONE',  ( 0.0000000000000000000, 0.0000000000000000000, -195.8624013886570800 ) ) ;
#10 = PRODUCT_DEFINITION ( 'UNKNOWN', '', #104, #255 ) ;
#11 = PERSON_AND_ORGANIZATION_ROLE ( 'creator' ) ;
#12 = APPROVAL ( #272, 'UNSPECIFIED' ) ;
#13 = FACE_OUTER_BOUND ( 'NONE', #198, .T. ) ;
#14 = CYLINDRICAL_SURFACE ( 'NONE', #300, 25.39999999999999900 ) ;
#15 = EDGE_CURVE ( 'NONE', #295, #188, #160, .T. ) ;
#16 = PERSON_AND_ORGANIZATION ( #284, #341 ) ;
#17 = ORIENTED_EDGE ( 'NONE', *, *, #273, .T. ) ;
#18 = DIRECTION ( 'NONE',  ( -0.0000000000000000000, -0.0000000000000000000, 1.000000000000000000 ) ) ;
#19 = ADVANCED_FACE ( 'NONE', ( #320 ), #352, .T. ) ;
#20 = DIRECTION ( 'NONE',  ( -1.000000000000000000, 0.0000000000000000000, 0.0000000000000000000 ) ) ;
#21 = CARTESIAN_POINT ( 'NONE',  ( 0.0000000000000000000, 0.0000000000000000000, -1.109610102006462400 ) ) ;
#22 = DIRECTION ( 'NONE',  ( -0.5462716342742733900, 0.0000000000000000000, -0.8376080835255319500 ) ) ;
#23 = ORIENTED_EDGE ( 'NONE', *, *, #222, .T. ) ;
#24 = DIRECTION ( 'NONE',  ( -0.0000000000000000000, -0.0000000000000000000, 1.000000000000000000 ) ) ;
#25 = ORIENTED_EDGE ( 'NONE', *, *, #142, .T. ) ;
#26 = LOCAL_TIME ( 11, 21, 32.00000000000000000, #264 ) ;
#27 = APPROVAL ( #297, 'UNSPECIFIED' ) ;
#28 = CLOSED_SHELL ( 'NONE', ( #132, #278, #332, #101, #19, #39, #360, #163, #228, #251 ) ) ;
#29 = DIRECTION ( 'NONE',  ( -0.0000000000000000000, -0.0000000000000000000, 1.000000000000000000 ) ) ;
#30 = CC_DESIGN_APPROVAL ( #12, ( #208 ) ) ;
#31 = EDGE_CURVE ( 'NONE', #106, #305, #176, .T. ) ;
#32 = CIRCLE ( 'NONE', #231, 25.15200369103168400 ) ;
#33 = ORIENTED_EDGE ( 'NONE', *, *, #343, .T. ) ;
#34 = DIRECTION ( 'NONE',  ( 0.0000000000000000000, 0.0000000000000000000, -1.000000000000000000 ) ) ;
#35 = AXIS2_PLACEMENT_3D ( 'NONE', #40, #250, #72 ) ;
#36 = DIRECTION ( 'NONE',  ( 1.000000000000000000, 0.0000000000000000000, 0.0000000000000000000 ) ) ;
#37 = SECURITY_CLASSIFICATION_LEVEL ( 'unclassified' ) ;
#38 = CARTESIAN_POINT ( 'NONE',  ( 0.0000000000000000000, 0.0000000000000000000, -1.109610102006462400 ) ) ;
#39 = ADVANCED_FACE ( 'NONE', ( #257 ), #232, .T. ) ;
#40 = CARTESIAN_POINT ( 'NONE',  ( 0.0000000000000000000, 0.0000000000000000000, -4.104906853694127600 ) ) ;
#41 = ORIENTED_EDGE ( 'NONE', *, *, #288, .T. ) ;
#42 = CC_DESIGN_APPROVAL ( #27, ( #10 ) ) ;
#43 = CARTESIAN_POINT ( 'NONE',  ( 0.0000000000000000000, 3.857637417314163500E-015, 4.137598611342934200 ) ) ;
#44 = CC_DESIGN_SECURITY_CLASSIFICATION ( #208, ( #104 ) ) ;
#45 = DIRECTION ( 'NONE',  ( 0.0000000000000000000, 1.000000000000000000, 0.0000000000000000000 ) ) ;
#46 = EDGE_CURVE ( 'NONE', #309, #159, #180, .T. ) ;
#47 = LINE ( 'NONE', #307, #313 ) ;
#48 = SHAPE_DEFINITION_REPRESENTATION ( #285, #171 ) ;
#49 = AXIS2_PLACEMENT_3D ( 'NONE', #128, #18, #329 ) ;
#50 = ORIENTED_EDGE ( 'NONE', *, *, #78, .T. ) ;
#51 = CIRCLE ( 'NONE', #153, 25.17171226993853500 ) ;
#52 = ORIENTED_EDGE ( 'NONE', *, *, #258, .T. ) ;
#53 = ORIENTED_EDGE ( 'NONE', *, *, #235, .T. ) ;
#54 = CONICAL_SURFACE ( 'NONE', #129, 25.39999999999999900, 0.8512554328799700800 ) ;
#55 = CARTESIAN_POINT ( 'NONE',  ( 0.0000000000000000000, 0.0000000000000000000, -58.86240138865708400 ) ) ;
#56 = CARTESIAN_POINT ( 'NONE',  ( -25.39999999999999900, 3.110602869834276900E-015, -1.459647768383205200 ) ) ;
#57 = DIRECTION ( 'NONE',  ( 1.000000000000000000, 0.0000000000000000000, 0.0000000000000000000 ) ) ;
#58 = CARTESIAN_POINT ( 'NONE',  ( 0.0000000000000000000, 0.0000000000000000000, 0.0000000000000000000 ) ) ;
#59 = CIRCLE ( 'NONE', #2, 63.00000000000001400 ) ;
#60 = COORDINATED_UNIVERSAL_TIME_OFFSET ( 5, 0, .BEHIND. ) ;
#61 = CARTESIAN_POINT ( 'NONE',  ( 0.0000000000000000000, 0.0000000000000000000, 4.137598611342951000 ) ) ;
#62 = PERSON_AND_ORGANIZATION_ROLE ( 'design_owner' ) ;
#63 = CC_DESIGN_PERSON_AND_ORGANIZATION_ASSIGNMENT ( #156, #323, ( #10 ) ) ;
#64 = DATE_TIME_ROLE ( 'classification_date' ) ;
#65 = PRODUCT_RELATED_PRODUCT_CATEGORY ( 'detail', '', ( #330 ) ) ;
#66 = VECTOR ( 'NONE', #267, 1000.000000000000000 ) ;
#67 = ORIENTED_EDGE ( 'NONE', *, *, #343, .F. ) ;
#68 = EDGE_CURVE ( 'NONE', #335, #325, #32, .T. ) ;
#69 = DIRECTION ( 'NONE',  ( -1.000000000000000000, 0.0000000000000000000, 0.0000000000000000000 ) ) ;
#70 = AXIS2_PLACEMENT_3D ( 'NONE', #331, #164, #134 ) ;
#71 = CARTESIAN_POINT ( 'NONE',  ( 0.0000000000000000000, 0.0000000000000000000, 4.137598611342951000 ) ) ;
#72 = DIRECTION ( 'NONE',  ( -1.000000000000000000, 0.0000000000000000000, 0.0000000000000000000 ) ) ;
#73 = DIRECTION ( 'NONE',  ( -1.000000000000000000, -0.0000000000000000000, -0.0000000000000000000 ) ) ;
#74 = APPROVAL_DATE_TIME ( #125, #27 ) ;
#75 = FACE_OUTER_BOUND ( 'NONE', #299, .T. ) ;
#76 = EDGE_LOOP ( 'NONE', ( #302, #23, #344, #50 ) ) ;
#77 = CC_DESIGN_DATE_AND_TIME_ASSIGNMENT ( #150, #155, ( #10 ) ) ;
#78 = EDGE_CURVE ( 'NONE', #335, #94, #239, .T. ) ;
#79 = CARTESIAN_POINT ( 'NONE',  ( 0.0000000000000000000, 0.0000000000000000000, -1.459647768383205200 ) ) ;
#80 = CARTESIAN_POINT ( 'NONE',  ( 0.0000000000000000000, 0.0000000000000000000, -4.104906853694127600 ) ) ;
#81 = DIRECTION ( 'NONE',  ( 0.0000000000000000000, 1.000000000000000000, 0.0000000000000000000 ) ) ;
#82 = ORIENTED_EDGE ( 'NONE', *, *, #15, .T. ) ;
#83 = CARTESIAN_POINT ( 'NONE',  ( 3.080232081236429400E-015, 25.15200369103162700, -4.104906853694131100 ) ) ;
#84 = APPROVAL_DATE_TIME ( #115, #124 ) ;
#85 = SPHERICAL_SURFACE ( 'NONE', #354, 193.4000000000000100 ) ;
#86 = CARTESIAN_POINT ( 'NONE',  ( -25.15200369103168400, 3.095417475535356700E-015, -4.104906853694127600 ) ) ;
#87 = AXIS2_PLACEMENT_3D ( 'NONE', #80, #290, #118 ) ;
#88 = DIRECTION ( 'NONE',  ( 0.0000000000000000000, 0.0000000000000000000, -1.000000000000000000 ) ) ;
#89 = APPLICATION_PROTOCOL_DEFINITION ( 'international standard', 'config_control_design', 1994, #270 ) ;
#90 = APPROVAL_ROLE ( '' ) ;
#91 = CIRCLE ( 'NONE', #175, 25.39999999999999900 ) ;
#92 = APPROVAL_PERSON_ORGANIZATION ( #148, #12, #90 ) ;
#93 = FACE_OUTER_BOUND ( 'NONE', #206, .T. ) ;
#94 = VERTEX_POINT ( 'NONE', #130 ) ;
#95 = ORIENTED_EDGE ( 'NONE', *, *, #158, .F. ) ;
#96 = DIRECTION ( 'NONE',  ( 1.000000000000000000, 0.0000000000000000000, 0.0000000000000000000 ) ) ;
#97 = COORDINATED_UNIVERSAL_TIME_OFFSET ( 5, 0, .BEHIND. ) ;
#98 = DIRECTION ( 'NONE',  ( 0.0000000000000000000, 0.0000000000000000000, -1.000000000000000000 ) ) ;
#99 = DIRECTION ( 'NONE',  ( -0.0000000000000000000, -0.0000000000000000000, 1.000000000000000000 ) ) ;
#100 = CARTESIAN_POINT ( 'NONE',  ( 25.17171226993853500, 3.082645686043838200E-015, -1.109610102006462400 ) ) ;
#101 = ADVANCED_FACE ( 'NONE', ( #13 ), #14, .T. ) ;
#102 = DIRECTION ( 'NONE',  ( 1.000000000000000000, 0.0000000000000000000, 0.0000000000000000000 ) ) ;
#103 = ORIENTED_EDGE ( 'NONE', *, *, #222, .F. ) ;
#104 = PRODUCT_DEFINITION_FORMATION_WITH_SPECIFIED_SOURCE ( 'ANY', '', #330, .NOT_KNOWN. ) ;
#105 = CARTESIAN_POINT ( 'NONE',  ( 0.0000000000000000000, 0.0000000000000000000, -195.8624013886570800 ) ) ;
#106 = VERTEX_POINT ( 'NONE', #333 ) ;
#107 = EDGE_CURVE ( 'NONE', #271, #295, #47, .T. ) ;
#108 = ORIENTED_EDGE ( 'NONE', *, *, #107, .F. ) ;
#109 = VECTOR ( 'NONE', #223, 1000.000000000000100 ) ;
#110 = UNCERTAINTY_MEASURE_WITH_UNIT (LENGTH_MEASURE( 1.000000000000000100E-005 ), #119, 'distance_accuracy_value', 'NONE');
#111 = AXIS2_PLACEMENT_3D ( 'NONE', #3, #212, #34 ) ;
#112 = CIRCLE ( 'NONE', #317, 25.17171226993853500 ) ;
#113 = PERSON_AND_ORGANIZATION ( #284, #341 ) ;
#114 = VERTEX_POINT ( 'NONE', #43 ) ;
#115 = DATE_AND_TIME ( #187, #293 ) ;
#116 = DIRECTION ( 'NONE',  ( 0.0000000000000000000, 0.0000000000000000000, -1.000000000000000000 ) ) ;
#117 = EDGE_CURVE ( 'NONE', #287, #94, #133, .T. ) ;
#118 = DIRECTION ( 'NONE',  ( -1.000000000000000000, 0.0000000000000000000, 0.0000000000000000000 ) ) ;
#119 =( LENGTH_UNIT ( ) NAMED_UNIT ( * ) SI_UNIT ( .MILLI., .METRE. ) );
#120 = ORIENTED_EDGE ( 'NONE', *, *, #78, .F. ) ;
#121 = APPROVAL_ROLE ( '' ) ;
#122 = CIRCLE ( 'NONE', #196, 25.17171226993853500 ) ;
#123 = EDGE_CURVE ( 'NONE', #159, #295, #259, .T. ) ;
#124 = APPROVAL ( #351, 'UNSPECIFIED' ) ;
#125 = DATE_AND_TIME ( #365, #140 ) ;
#126 = AXIS2_PLACEMENT_3D ( 'NONE', #79, #116, #265 ) ;
#127 = PERSON_AND_ORGANIZATION ( #284, #341 ) ;
#128 = CARTESIAN_POINT ( 'NONE',  ( 0.0000000000000000000, 0.0000000000000000000, -3.887598611342905300 ) ) ;
#129 = AXIS2_PLACEMENT_3D ( 'NONE', #318, #147, #237 ) ;
#130 = CARTESIAN_POINT ( 'NONE',  ( 0.0000000000000000000, -1.184233454775490600E-014, -2.462401388657053900 ) ) ;
#131 = ORIENTED_EDGE ( 'NONE', *, *, #123, .T. ) ;
#132 = ADVANCED_FACE ( 'NONE', ( #8 ), #244, .T. ) ;
#133 = CIRCLE ( 'NONE', #283, 193.4000000000000100 ) ;
#134 = DIRECTION ( 'NONE',  ( -1.000000000000000000, 0.0000000000000000000, 0.0000000000000000000 ) ) ;
#135 = LOCAL_TIME ( 11, 21, 32.00000000000000000, #60 ) ;
#136 = CARTESIAN_POINT ( 'NONE',  ( 0.0000000000000000000, 0.0000000000000000000, -1.109610102006462400 ) ) ;
#137 = DIRECTION ( 'NONE',  ( 1.224646799147353200E-016, 1.000000000000000000, 0.0000000000000000000 ) ) ;
#138 = ORIENTED_EDGE ( 'NONE', *, *, #235, .F. ) ;
#139 = COORDINATED_UNIVERSAL_TIME_OFFSET ( 5, 0, .BEHIND. ) ;
#140 = LOCAL_TIME ( 11, 21, 32.00000000000000000, #245 ) ;
#141 = CALENDAR_DATE ( 2015, 13, 7 ) ;
#142 = EDGE_CURVE ( 'NONE', #325, #159, #168, .T. ) ;
#143 = CC_DESIGN_APPROVAL ( #124, ( #104 ) ) ;
#144 = ORIENTED_EDGE ( 'NONE', *, *, #258, .F. ) ;
#145 = ORIENTED_EDGE ( 'NONE', *, *, #324, .F. ) ;
#146 = AXIS2_PLACEMENT_3D ( 'NONE', #207, #29, #342 ) ;
#147 = DIRECTION ( 'NONE',  ( -0.0000000000000000000, -0.0000000000000000000, 1.000000000000000000 ) ) ;
#148 = PERSON_AND_ORGANIZATION ( #284, #341 ) ;
#149 = DIRECTION ( 'NONE',  ( 1.000000000000000000, 0.0000000000000000000, 0.0000000000000000000 ) ) ;
#150 = DATE_AND_TIME ( #225, #135 ) ;
#151 = ORIENTED_EDGE ( 'NONE', *, *, #273, .F. ) ;
#152 = CARTESIAN_POINT ( 'NONE',  ( 0.0000000000000000000, 0.0000000000000000000, -3.887598611342906200 ) ) ;
#153 = AXIS2_PLACEMENT_3D ( 'NONE', #182, #7, #213 ) ;
#154 =( NAMED_UNIT ( * ) SI_UNIT ( $, .STERADIAN. ) SOLID_ANGLE_UNIT ( ) );
#155 = DATE_TIME_ROLE ( 'creation_date' ) ;
#156 = PERSON_AND_ORGANIZATION ( #284, #341 ) ;
#157 = APPROVAL_PERSON_ORGANIZATION ( #113, #124, #186 ) ;
#158 = EDGE_CURVE ( 'NONE', #271, #5, #112, .T. ) ;
#159 = VERTEX_POINT ( 'NONE', #316 ) ;
#160 = CIRCLE ( 'NONE', #126, 25.39999999999999900 ) ;
#161 = PERSON_AND_ORGANIZATION ( #284, #341 ) ;
#162 = CARTESIAN_POINT ( 'NONE',  ( 0.0000000000000000000, 0.0000000000000000000, -58.86240138865708400 ) ) ;
#163 = ADVANCED_FACE ( 'NONE', ( #204 ), #85, .F. ) ;
#164 = DIRECTION ( 'NONE',  ( 0.0000000000000000000, 0.0000000000000000000, -1.000000000000000000 ) ) ;
#165 = CC_DESIGN_PERSON_AND_ORGANIZATION_ASSIGNMENT ( #172, #11, ( #104 ) ) ;
#166 = DIRECTION ( 'NONE',  ( -1.000000000000000000, 0.0000000000000000000, 0.0000000000000000000 ) ) ;
#167 = APPROVAL_DATE_TIME ( #367, #12 ) ;
#168 = LINE ( 'NONE', #202, #249 ) ;
#169 = ORIENTED_EDGE ( 'NONE', *, *, #203, .T. ) ;
#170 = AXIS2_PLACEMENT_3D ( 'NONE', #55, #1, #81 ) ;
#171 = ADVANCED_BREP_SHAPE_REPRESENTATION ( '4933-E0W', ( #4, #339 ), #234 ) ;
#172 = PERSON_AND_ORGANIZATION ( #284, #341 ) ;
#173 = ORIENTED_EDGE ( 'NONE', *, *, #220, .T. ) ;
#174 = ORIENTED_EDGE ( 'NONE', *, *, #203, .F. ) ;
#175 = AXIS2_PLACEMENT_3D ( 'NONE', #152, #347, #184 ) ;
#176 = CIRCLE ( 'NONE', #146, 25.17171226993853500 ) ;
#177 = EDGE_LOOP ( 'NONE', ( #138, #67, #95, #238, #174 ) ) ;
#178 = EDGE_CURVE ( 'NONE', #348, #309, #319, .T. ) ;
#179 = DIRECTION ( 'NONE',  ( -1.000000000000000000, 0.0000000000000000000, 0.0000000000000000000 ) ) ;
#180 = CIRCLE ( 'NONE', #190, 25.39999999999999900 ) ;
#181 = SPHERICAL_SURFACE ( 'NONE', #216, 193.4000000000000100 ) ;
#182 = CARTESIAN_POINT ( 'NONE',  ( 0.0000000000000000000, 0.0000000000000000000, -1.109610102006462400 ) ) ;
#183 = DIRECTION ( 'NONE',  ( 0.0000000000000000000, 0.0000000000000000000, 1.000000000000000000 ) ) ;
#184 = DIRECTION ( 'NONE',  ( 1.000000000000000000, 0.0000000000000000000, 0.0000000000000000000 ) ) ;
#185 = APPLICATION_PROTOCOL_DEFINITION ( 'international standard', 'config_control_design', 1994, #218 ) ;
#186 = APPROVAL_ROLE ( '' ) ;
#187 = CALENDAR_DATE ( 2015, 13, 7 ) ;
#188 = VERTEX_POINT ( 'NONE', #194 ) ;
#189 = CC_DESIGN_PERSON_AND_ORGANIZATION_ASSIGNMENT ( #16, #221, ( #104 ) ) ;
#190 = AXIS2_PLACEMENT_3D ( 'NONE', #277, #99, #306 ) ;
#191 = VECTOR ( 'NONE', #254, 1000.000000000000000 ) ;
#192 = LINE ( 'NONE', #266, #66 ) ;
#193 = PERSON_AND_ORGANIZATION ( #284, #341 ) ;
#194 = CARTESIAN_POINT ( 'NONE',  ( 25.39999999999999900, 0.0000000000000000000, -1.459647768383205200 ) ) ;
#195 = DIRECTION ( 'NONE',  ( -1.224646799147353200E-016, -1.000000000000000000, 0.0000000000000000000 ) ) ;
#196 = AXIS2_PLACEMENT_3D ( 'NONE', #21, #24, #179 ) ;
#197 = DIRECTION ( 'NONE',  ( 0.0000000000000000000, 0.0000000000000000000, -1.000000000000000000 ) ) ;
#198 = EDGE_LOOP ( 'NONE', ( #199, #131, #82, #356 ) ) ;
#199 = ORIENTED_EDGE ( 'NONE', *, *, #46, .T. ) ;
#200 = CARTESIAN_POINT ( 'NONE',  ( -25.17171226993853500, 0.0000000000000000000, -1.109610102006462400 ) ) ;
#201 = APPROVAL_PERSON_ORGANIZATION ( #193, #27, #121 ) ;
#202 = CARTESIAN_POINT ( 'NONE',  ( -25.39999999999999900, 3.110602869834276900E-015, -3.887598611342905300 ) ) ;
#203 = EDGE_CURVE ( 'NONE', #188, #295, #338, .T. ) ;
#204 = FACE_OUTER_BOUND ( 'NONE', #76, .T. ) ;
#205 = VECTOR ( 'NONE', #280, 1000.000000000000000 ) ;
#206 = EDGE_LOOP ( 'NONE', ( #144, #25, #209, #236, #103 ) ) ;
#207 = CARTESIAN_POINT ( 'NONE',  ( 0.0000000000000000000, 0.0000000000000000000, -1.109610102006462400 ) ) ;
#208 = SECURITY_CLASSIFICATION ( '', '', #37 ) ;
#209 = ORIENTED_EDGE ( 'NONE', *, *, #46, .F. ) ;
#210 = AXIS2_PLACEMENT_3D ( 'NONE', #211, #291, #45 ) ;
#211 = CARTESIAN_POINT ( 'NONE',  ( 0.0000000000000000000, 0.0000000000000000000, -58.86240138865708400 ) ) ;
#212 = DIRECTION ( 'NONE',  ( 1.000000000000000000, 0.0000000000000000000, 0.0000000000000000000 ) ) ;
#213 = DIRECTION ( 'NONE',  ( -1.000000000000000000, 0.0000000000000000000, 0.0000000000000000000 ) ) ;
#214 = EDGE_LOOP ( 'NONE', ( #310, #53, #340, #108, #355 ) ) ;
#215 = DIRECTION ( 'NONE',  ( 0.0000000000000000000, -1.000000000000000000, 0.0000000000000000000 ) ) ;
#216 = AXIS2_PLACEMENT_3D ( 'NONE', #9, #57, #215 ) ;
#217 = CONICAL_SURFACE ( 'NONE', #70, 25.17171226993853500, 0.5779065378270714600 ) ;
#218 = APPLICATION_CONTEXT ( 'configuration controlled 3d designs of mechanical parts and assemblies' ) ;
#219 = CALENDAR_DATE ( 2015, 13, 7 ) ;
#220 = EDGE_CURVE ( 'NONE', #5, #114, #59, .T. ) ;
#221 = PERSON_AND_ORGANIZATION_ROLE ( 'design_supplier' ) ;
#222 = EDGE_CURVE ( 'NONE', #287, #348, #226, .T. ) ;
#223 = DIRECTION ( 'NONE',  ( 0.7521083774133644500, 0.0000000000000000000, 0.6590394439065357900 ) ) ;
#224 = EDGE_LOOP ( 'NONE', ( #334, #33, #303, #17 ) ) ;
#225 = CALENDAR_DATE ( 2015, 13, 7 ) ;
#226 = CIRCLE ( 'NONE', #35, 25.15200369103168400 ) ;
#227 = DIRECTION ( 'NONE',  ( -0.0000000000000000000, -0.0000000000000000000, 1.000000000000000000 ) ) ;
#228 = ADVANCED_FACE ( 'NONE', ( #6 ), #286, .T. ) ;
#229 = CC_DESIGN_PERSON_AND_ORGANIZATION_ASSIGNMENT ( #161, #242, ( #208 ) ) ;
#230 = ORIENTED_EDGE ( 'NONE', *, *, #178, .T. ) ;
#231 = AXIS2_PLACEMENT_3D ( 'NONE', #358, #197, #20 ) ;
#232 = SPHERICAL_SURFACE ( 'NONE', #210, 63.00000000000001400 ) ;
#233 = ORIENTED_EDGE ( 'NONE', *, *, #324, .T. ) ;
#234 =( GEOMETRIC_REPRESENTATION_CONTEXT ( 3 ) GLOBAL_UNCERTAINTY_ASSIGNED_CONTEXT ( ( #110 ) ) GLOBAL_UNIT_ASSIGNED_CONTEXT ( ( #119, #322, #154 ) ) REPRESENTATION_CONTEXT ( 'NONE', 'WORKASPACE' ) );
#235 = EDGE_CURVE ( 'NONE', #106, #188, #359, .T. ) ;
#236 = ORIENTED_EDGE ( 'NONE', *, *, #178, .F. ) ;
#237 = DIRECTION ( 'NONE',  ( 1.000000000000000000, 0.0000000000000000000, 0.0000000000000000000 ) ) ;
#238 = ORIENTED_EDGE ( 'NONE', *, *, #107, .T. ) ;
#239 = CIRCLE ( 'NONE', #246, 193.4000000000000100 ) ;
#240 = CARTESIAN_POINT ( 'NONE',  ( 0.0000000000000000000, -25.15200369103162700, -4.104906853694131100 ) ) ;
#241 = MECHANICAL_CONTEXT ( 'NONE', #218, 'mechanical' ) ;
#242 = PERSON_AND_ORGANIZATION_ROLE ( 'classification_officer' ) ;
#243 = CC_DESIGN_DATE_AND_TIME_ASSIGNMENT ( #263, #64, ( #208 ) ) ;
#244 = CONICAL_SURFACE ( 'NONE', #262, 25.17171226993853500, 0.5779065378270714600 ) ;
#245 = COORDINATED_UNIVERSAL_TIME_OFFSET ( 5, 0, .BEHIND. ) ;
#246 = AXIS2_PLACEMENT_3D ( 'NONE', #253, #73, #281 ) ;
#247 = DIRECTION ( 'NONE',  ( -0.0000000000000000000, -0.0000000000000000000, 1.000000000000000000 ) ) ;
#248 = CYLINDRICAL_SURFACE ( 'NONE', #269, 25.39999999999999900 ) ;
#249 = VECTOR ( 'NONE', #362, 1000.000000000000100 ) ;
#250 = DIRECTION ( 'NONE',  ( 0.0000000000000000000, 0.0000000000000000000, -1.000000000000000000 ) ) ;
#251 = ADVANCED_FACE ( 'NONE', ( #364 ), #217, .T. ) ;
#252 = AXIS2_PLACEMENT_3D ( 'NONE', #268, #88, #294 ) ;
#253 = CARTESIAN_POINT ( 'NONE',  ( 0.0000000000000000000, 0.0000000000000000000, -195.8624013886570800 ) ) ;
#254 = DIRECTION ( 'NONE',  ( -0.0000000000000000000, -0.0000000000000000000, 1.000000000000000000 ) ) ;
#255 = DESIGN_CONTEXT ( 'detailed design', #270, 'design' ) ;
#256 = CIRCLE ( 'NONE', #252, 25.15200369103168400 ) ;
#257 = FACE_OUTER_BOUND ( 'NONE', #224, .T. ) ;
#258 = EDGE_CURVE ( 'NONE', #325, #287, #327, .T. ) ;
#259 = LINE ( 'NONE', #282, #191 ) ;
#260 = ORIENTED_EDGE ( 'NONE', *, *, #117, .T. ) ;
#261 = ORIENTED_EDGE ( 'NONE', *, *, #142, .F. ) ;
#262 = AXIS2_PLACEMENT_3D ( 'NONE', #136, #336, #166 ) ;
#263 = DATE_AND_TIME ( #141, #350 ) ;
#264 = COORDINATED_UNIVERSAL_TIME_OFFSET ( 5, 0, .BEHIND. ) ;
#265 = DIRECTION ( 'NONE',  ( -1.000000000000000000, 0.0000000000000000000, 0.0000000000000000000 ) ) ;
#266 = CARTESIAN_POINT ( 'NONE',  ( 25.39999999999999900, 0.0000000000000000000, 4.137598611342951000 ) ) ;
#267 = DIRECTION ( 'NONE',  ( -0.0000000000000000000, -0.0000000000000000000, 1.000000000000000000 ) ) ;
#268 = CARTESIAN_POINT ( 'NONE',  ( 0.0000000000000000000, 0.0000000000000000000, -4.104906853694127600 ) ) ;
#269 = AXIS2_PLACEMENT_3D ( 'NONE', #61, #296, #149 ) ;
#270 = APPLICATION_CONTEXT ( 'configuration controlled 3d designs of mechanical parts and assemblies' ) ;
#271 = VERTEX_POINT ( 'NONE', #200 ) ;
#272 = APPROVAL_STATUS ( 'not_yet_approved' ) ;
#273 = EDGE_CURVE ( 'NONE', #305, #114, #353, .T. ) ;
#274 = EDGE_LOOP ( 'NONE', ( #41, #279, #173, #151 ) ) ;
#275 = CARTESIAN_POINT ( 'NONE',  ( 0.0000000000000000000, 0.0000000000000000000, -195.8624013886570800 ) ) ;
#276 = CARTESIAN_POINT ( 'NONE',  ( 0.0000000000000000000, 0.0000000000000000000, -1.459647768383205200 ) ) ;
#277 = CARTESIAN_POINT ( 'NONE',  ( 0.0000000000000000000, 0.0000000000000000000, -3.887598611342906200 ) ) ;
#278 = ADVANCED_FACE ( 'NONE', ( #93 ), #54, .T. ) ;
#279 = ORIENTED_EDGE ( 'NONE', *, *, #158, .T. ) ;
#280 = DIRECTION ( 'NONE',  ( 0.5462716342742733900, 6.689898083789824800E-017, -0.8376080835255319500 ) ) ;
#281 = DIRECTION ( 'NONE',  ( 0.0000000000000000000, 0.0000000000000000000, 1.000000000000000000 ) ) ;
#282 = CARTESIAN_POINT ( 'NONE',  ( -25.39999999999999900, 3.110602869834276900E-015, 4.137598611342951000 ) ) ;
#283 = AXIS2_PLACEMENT_3D ( 'NONE', #105, #308, #137 ) ;
#284 = PERSON ( 'UNSPECIFIED', 'UNSPECIFIED', 'UNSPECIFIED', ('UNSPECIFIED'), ('UNSPECIFIED'), ('UNSPECIFIED') ) ;
#285 = PRODUCT_DEFINITION_SHAPE ( 'NONE', 'NONE',  #10 ) ;
#286 = CONICAL_SURFACE ( 'NONE', #49, 25.39999999999999900, 0.8512554328799700800 ) ;
#287 = VERTEX_POINT ( 'NONE', #83 ) ;
#288 = EDGE_CURVE ( 'NONE', #305, #271, #51, .T. ) ;
#289 = CARTESIAN_POINT ( 'NONE',  ( -3.082645686043838200E-015, -25.17171226993853500, -1.109610102006465900 ) ) ;
#290 = DIRECTION ( 'NONE',  ( 0.0000000000000000000, 0.0000000000000000000, -1.000000000000000000 ) ) ;
#291 = DIRECTION ( 'NONE',  ( -1.000000000000000000, 0.0000000000000000000, 0.0000000000000000000 ) ) ;
#292 = CARTESIAN_POINT ( 'NONE',  ( 25.39999999999999900, 0.0000000000000000000, -3.887598611342906200 ) ) ;
#293 = LOCAL_TIME ( 11, 21, 32.00000000000000000, #97 ) ;
#294 = DIRECTION ( 'NONE',  ( -1.000000000000000000, 0.0000000000000000000, 0.0000000000000000000 ) ) ;
#295 = VERTEX_POINT ( 'NONE', #56 ) ;
#296 = DIRECTION ( 'NONE',  ( -0.0000000000000000000, -0.0000000000000000000, 1.000000000000000000 ) ) ;
#297 = APPROVAL_STATUS ( 'not_yet_approved' ) ;
#298 = ORIENTED_EDGE ( 'NONE', *, *, #123, .F. ) ;
#299 = EDGE_LOOP ( 'NONE', ( #314, #52, #260, #120 ) ) ;
#300 = AXIS2_PLACEMENT_3D ( 'NONE', #71, #227, #102 ) ;
#301 = DIRECTION ( 'NONE',  ( 0.0000000000000000000, -1.000000000000000000, 0.0000000000000000000 ) ) ;
#302 = ORIENTED_EDGE ( 'NONE', *, *, #117, .F. ) ;
#303 = ORIENTED_EDGE ( 'NONE', *, *, #31, .T. ) ;
#304 = DIRECTION ( 'NONE',  ( -1.000000000000000000, 0.0000000000000000000, 0.0000000000000000000 ) ) ;
#305 = VERTEX_POINT ( 'NONE', #346 ) ;
#306 = DIRECTION ( 'NONE',  ( 1.000000000000000000, 0.0000000000000000000, 0.0000000000000000000 ) ) ;
#307 = CARTESIAN_POINT ( 'NONE',  ( -25.17171226993853500, 0.0000000000000000000, -1.109610102006462400 ) ) ;
#308 = DIRECTION ( 'NONE',  ( 1.000000000000000000, -1.224646799147353200E-016, 0.0000000000000000000 ) ) ;
#309 = VERTEX_POINT ( 'NONE', #292 ) ;
#310 = ORIENTED_EDGE ( 'NONE', *, *, #31, .F. ) ;
#311 = EDGE_LOOP ( 'NONE', ( #261, #349, #326, #230, #145 ) ) ;
#312 = EDGE_CURVE ( 'NONE', #309, #188, #192, .T. ) ;
#313 = VECTOR ( 'NONE', #22, 1000.000000000000000 ) ;
#314 = ORIENTED_EDGE ( 'NONE', *, *, #68, .T. ) ;
#315 = FACE_OUTER_BOUND ( 'NONE', #345, .T. ) ;
#316 = CARTESIAN_POINT ( 'NONE',  ( -25.39999999999999900, 3.110602869834276900E-015, -3.887598611342906200 ) ) ;
#317 = AXIS2_PLACEMENT_3D ( 'NONE', #38, #247, #69 ) ;
#318 = CARTESIAN_POINT ( 'NONE',  ( 0.0000000000000000000, 0.0000000000000000000, -3.887598611342905300 ) ) ;
#319 = LINE ( 'NONE', #328, #109 ) ;
#320 = FACE_OUTER_BOUND ( 'NONE', #274, .T. ) ;
#321 = CARTESIAN_POINT ( 'NONE',  ( 25.15200369103168400, 0.0000000000000000000, -4.104906853694127600 ) ) ;
#322 =( NAMED_UNIT ( * ) PLANE_ANGLE_UNIT ( ) SI_UNIT ( $, .RADIAN. ) );
#323 = PERSON_AND_ORGANIZATION_ROLE ( 'creator' ) ;
#324 = EDGE_CURVE ( 'NONE', #159, #309, #91, .T. ) ;
#325 = VERTEX_POINT ( 'NONE', #86 ) ;
#326 = ORIENTED_EDGE ( 'NONE', *, *, #363, .F. ) ;
#327 = CIRCLE ( 'NONE', #87, 25.15200369103168400 ) ;
#328 = CARTESIAN_POINT ( 'NONE',  ( 25.39999999999999900, 0.0000000000000000000, -3.887598611342905300 ) ) ;
#329 = DIRECTION ( 'NONE',  ( 1.000000000000000000, 0.0000000000000000000, 0.0000000000000000000 ) ) ;
#330 = PRODUCT ( '4933-E0W', '4933-E0W', '', ( #241 ) ) ;
#331 = CARTESIAN_POINT ( 'NONE',  ( 0.0000000000000000000, 0.0000000000000000000, -1.109610102006462400 ) ) ;
#332 = ADVANCED_FACE ( 'NONE', ( #75 ), #181, .F. ) ;
#333 = CARTESIAN_POINT ( 'NONE',  ( 25.17171226993853500, 3.096624277939057700E-015, -1.109610102006462400 ) ) ;
#334 = ORIENTED_EDGE ( 'NONE', *, *, #220, .F. ) ;
#335 = VERTEX_POINT ( 'NONE', #240 ) ;
#336 = DIRECTION ( 'NONE',  ( 0.0000000000000000000, 0.0000000000000000000, -1.000000000000000000 ) ) ;
#337 = AXIS2_PLACEMENT_3D ( 'NONE', #276, #98, #304 ) ;
#338 = CIRCLE ( 'NONE', #337, 25.39999999999999900 ) ;
#339 = AXIS2_PLACEMENT_3D ( 'NONE', #58, #183, #36 ) ;
#340 = ORIENTED_EDGE ( 'NONE', *, *, #15, .F. ) ;
#341 = ORGANIZATION ( 'UNSPECIFIED', 'UNSPECIFIED', '' ) ;
#342 = DIRECTION ( 'NONE',  ( -1.000000000000000000, 0.0000000000000000000, 0.0000000000000000000 ) ) ;
#343 = EDGE_CURVE ( 'NONE', #5, #106, #122, .T. ) ;
#344 = ORIENTED_EDGE ( 'NONE', *, *, #363, .T. ) ;
#345 = EDGE_LOOP ( 'NONE', ( #298, #233, #366, #169 ) ) ;
#346 = CARTESIAN_POINT ( 'NONE',  ( 0.0000000000000000000, 25.17171226993853500, -1.109610102006465900 ) ) ;
#347 = DIRECTION ( 'NONE',  ( -0.0000000000000000000, -0.0000000000000000000, 1.000000000000000000 ) ) ;
#348 = VERTEX_POINT ( 'NONE', #321 ) ;
#349 = ORIENTED_EDGE ( 'NONE', *, *, #68, .F. ) ;
#350 = LOCAL_TIME ( 11, 21, 32.00000000000000000, #139 ) ;
#351 = APPROVAL_STATUS ( 'not_yet_approved' ) ;
#352 = SPHERICAL_SURFACE ( 'NONE', #170, 63.00000000000001400 ) ;
#353 = CIRCLE ( 'NONE', #111, 63.00000000000000000 ) ;
#354 = AXIS2_PLACEMENT_3D ( 'NONE', #275, #96, #301 ) ;
#355 = ORIENTED_EDGE ( 'NONE', *, *, #288, .F. ) ;
#356 = ORIENTED_EDGE ( 'NONE', *, *, #312, .F. ) ;
#357 = DIRECTION ( 'NONE',  ( -1.000000000000000000, 1.224646799147353200E-016, 0.0000000000000000000 ) ) ;
#358 = CARTESIAN_POINT ( 'NONE',  ( 0.0000000000000000000, 0.0000000000000000000, -4.104906853694127600 ) ) ;
#359 = LINE ( 'NONE', #100, #205 ) ;
#360 = ADVANCED_FACE ( 'NONE', ( #315 ), #248, .T. ) ;
#361 = CC_DESIGN_PERSON_AND_ORGANIZATION_ASSIGNMENT ( #127, #62, ( #330 ) ) ;
#362 = DIRECTION ( 'NONE',  ( -0.7521083774133644500, 9.210671170111862100E-017, 0.6590394439065357900 ) ) ;
#363 = EDGE_CURVE ( 'NONE', #348, #335, #256, .T. ) ;
#364 = FACE_OUTER_BOUND ( 'NONE', #177, .T. ) ;
#365 = CALENDAR_DATE ( 2015, 13, 7 ) ;
#366 = ORIENTED_EDGE ( 'NONE', *, *, #312, .T. ) ;
#367 = DATE_AND_TIME ( #219, #26 ) ;
ENDSEC;
END-ISO-10303-21;
