ISO-10303-21;
HEADER;
FILE_DESCRIPTION (( 'STEP AP203' ),
    '1' );
FILE_NAME ('Web Model 11858_17300.step',
    '2021-04-09T13:21:51',
    ( '' ),
    ( '' ),
    'SwSTEP 2.0',
    'SolidWorks 2018',
    '' );
FILE_SCHEMA (( 'CONFIG_CONTROL_DESIGN' ));
ENDSEC;

DATA;
#1 = CC_DESIGN_PERSON_AND_ORGANIZATION_ASSIGNMENT ( #256, #267, ( #76 ) ) ;
#2 = CARTESIAN_POINT ( 'NONE',  ( -5.000000000000000000, 0.000000000000000000, 0.000000000000000000 ) ) ;
#3 = DIRECTION ( 'NONE',  ( 1.000000000000000000, 0.000000000000000000, 0.000000000000000000 ) ) ;
#4 = ORIENTED_EDGE ( 'NONE', *, *, #6, .F. ) ;
#5 = COORDINATED_UNIVERSAL_TIME_OFFSET ( 5, 0, .BEHIND. ) ;
#6 = EDGE_CURVE ( 'NONE', #137, #56, #62, .T. ) ;
#7 = APPROVAL_ROLE ( '' ) ;
#8 = DIRECTION ( 'NONE',  ( -1.000000000000000000, 0.000000000000000000, 0.000000000000000000 ) ) ;
#9 = MECHANICAL_CONTEXT ( 'NONE', #24, 'mechanical' ) ;
#10 = AXIS2_PLACEMENT_3D ( 'NONE', #121, #224, #199 ) ;
#11 = ORIENTED_EDGE ( 'NONE', *, *, #269, .T. ) ;
#12 = VERTEX_POINT ( 'NONE', #180 ) ;
#13 = LINE ( 'NONE', #212, #98 ) ;
#14 = CC_DESIGN_DATE_AND_TIME_ASSIGNMENT ( #252, #133, ( #76 ) ) ;
#15 = ORIENTED_EDGE ( 'NONE', *, *, #221, .F. ) ;
#16 = DATE_AND_TIME ( #36, #101 ) ;
#17 = CONICAL_SURFACE ( 'NONE', #266, 74.75000000000009948, 0.7853981633974761456 ) ;
#18 = DIRECTION ( 'NONE',  ( 0.000000000000000000, 0.000000000000000000, -1.000000000000000000 ) ) ;
#19 = CARTESIAN_POINT ( 'NONE',  ( -4.750000000000000000, 0.000000000000000000, 0.000000000000000000 ) ) ;
#20 = AXIS2_PLACEMENT_3D ( 'NONE', #2, #167, #145 ) ;
#21 = CARTESIAN_POINT ( 'NONE',  ( -5.000000000000000000, 0.000000000000000000, 0.000000000000000000 ) ) ;
#22 = PRODUCT ( 'Web Model 11858_17300', 'Web Model 11858_17300', '', ( #9 ) ) ;
#23 = CARTESIAN_POINT ( 'NONE',  ( 4.750000000000096811, 0.000000000000000000, 0.000000000000000000 ) ) ;
#24 = APPLICATION_CONTEXT ( 'configuration controlled 3d designs of mechanical parts and assemblies' ) ;
#25 = CALENDAR_DATE ( 2021, 9, 4 ) ;
#26 = APPROVAL ( #111, 'UNSPECIFIED' ) ;
#27 = EDGE_CURVE ( 'NONE', #12, #56, #220, .T. ) ;
#28 = CLOSED_SHELL ( 'NONE', ( #248, #131, #236, #50, #48, #94, #156, #72 ) ) ;
#29 = CALENDAR_DATE ( 2021, 9, 4 ) ;
#30 = SHAPE_DEFINITION_REPRESENTATION ( #117, #124 ) ;
#31 = ORIENTED_EDGE ( 'NONE', *, *, #71, .F. ) ;
#32 = AXIS2_PLACEMENT_3D ( 'NONE', #19, #125, #102 ) ;
#33 = SECURITY_CLASSIFICATION ( '', '', #70 ) ;
#34 = VERTEX_POINT ( 'NONE', #119 ) ;
#35 = CIRCLE ( 'NONE', #93, 74.75000000000009948 ) ;
#36 = CALENDAR_DATE ( 2021, 9, 4 ) ;
#37 = CYLINDRICAL_SURFACE ( 'NONE', #229, 75.00000000000001421 ) ;
#38 = CARTESIAN_POINT ( 'NONE',  ( 5.000000000000000000, 0.000000000000000000, 74.75000000000009948 ) ) ;
#39 = APPROVAL ( #237, 'UNSPECIFIED' ) ;
#40 = VECTOR ( 'NONE', #227, 1000.000000000000000 ) ;
#41 = DIRECTION ( 'NONE',  ( 0.000000000000000000, 0.000000000000000000, -1.000000000000000000 ) ) ;
#42 = AXIS2_PLACEMENT_3D ( 'NONE', #173, #46, #152 ) ;
#43 = CARTESIAN_POINT ( 'NONE',  ( 5.000000000000000000, 0.000000000000000000, 74.75000000000009948 ) ) ;
#44 = DIRECTION ( 'NONE',  ( -1.000000000000000000, 0.000000000000000000, 0.000000000000000000 ) ) ;
#45 = ORIENTED_EDGE ( 'NONE', *, *, #185, .F. ) ;
#46 = DIRECTION ( 'NONE',  ( -1.000000000000000000, -0.000000000000000000, -0.000000000000000000 ) ) ;
#47 = COORDINATED_UNIVERSAL_TIME_OFFSET ( 5, 0, .BEHIND. ) ;
#48 = ADVANCED_FACE ( 'NONE', ( #268 ), #198, .T. ) ;
#49 = DIRECTION ( 'NONE',  ( -1.000000000000000000, -0.000000000000000000, -0.000000000000000000 ) ) ;
#50 = ADVANCED_FACE ( 'NONE', ( #99 ), #37, .T. ) ;
#51 = DIRECTION ( 'NONE',  ( 1.000000000000000000, 0.000000000000000000, 0.000000000000000000 ) ) ;
#52 = FACE_OUTER_BOUND ( 'NONE', #186, .T. ) ;
#53 = AXIS2_PLACEMENT_3D ( 'NONE', #163, #64, #232 ) ;
#54 = LOCAL_TIME ( 9, 21, 51.00000000000000000, #219 ) ;
#55 = CYLINDRICAL_SURFACE ( 'NONE', #42, 75.00000000000001421 ) ;
#56 = VERTEX_POINT ( 'NONE', #61 ) ;
#57 = PERSON_AND_ORGANIZATION ( #166, #168 ) ;
#58 = CARTESIAN_POINT ( 'NONE',  ( 5.000000000000000000, 0.000000000000000000, 0.000000000000000000 ) ) ;
#59 = CC_DESIGN_APPROVAL ( #100, ( #273 ) ) ;
#60 = APPROVAL_PERSON_ORGANIZATION ( #118, #100, #192 ) ;
#61 = CARTESIAN_POINT ( 'NONE',  ( -4.750000000000000000, 9.184850993605150311E-15, -75.00000000000001421 ) ) ;
#62 = LINE ( 'NONE', #271, #249 ) ;
#63 = DIRECTION ( 'NONE',  ( -0.7071067811865279218, 0.000000000000000000, 0.7071067811865672237 ) ) ;
#64 = DIRECTION ( 'NONE',  ( 1.000000000000000000, -0.000000000000000000, -0.000000000000000000 ) ) ;
#65 = MANIFOLD_SOLID_BREP ( 'Chamfer1', #28 ) ;
#66 = ORIENTED_EDGE ( 'NONE', *, *, #270, .T. ) ;
#67 = VECTOR ( 'NONE', #240, 1000.000000000000000 ) ;
#68 = ORIENTED_EDGE ( 'NONE', *, *, #139, .F. ) ;
#69 = CONICAL_SURFACE ( 'NONE', #208, 74.75000000000009948, 0.7853981633974761456 ) ;
#70 = SECURITY_CLASSIFICATION_LEVEL ( 'unclassified' ) ;
#71 = EDGE_CURVE ( 'NONE', #74, #73, #155, .T. ) ;
#72 = ADVANCED_FACE ( 'NONE', ( #96 ), #17, .T. ) ;
#73 = VERTEX_POINT ( 'NONE', #203 ) ;
#74 = VERTEX_POINT ( 'NONE', #43 ) ;
#75 = LOCAL_TIME ( 9, 21, 51.00000000000000000, #130 ) ;
#76 = PRODUCT_DEFINITION ( 'UNKNOWN', '', #273, #238 ) ;
#77 = AXIS2_PLACEMENT_3D ( 'NONE', #78, #200, #79 ) ;
#78 = CARTESIAN_POINT ( 'NONE',  ( -4.750000000000000000, 0.000000000000000000, 0.000000000000000000 ) ) ;
#79 = DIRECTION ( 'NONE',  ( 0.000000000000000000, 0.000000000000000000, -1.000000000000000000 ) ) ;
#80 = VERTEX_POINT ( 'NONE', #235 ) ;
#81 = CIRCLE ( 'NONE', #86, 74.75000000000002842 ) ;
#82 = DIRECTION ( 'NONE',  ( 0.000000000000000000, 0.000000000000000000, -1.000000000000000000 ) ) ;
#83 = DIRECTION ( 'NONE',  ( 0.000000000000000000, 0.000000000000000000, -1.000000000000000000 ) ) ;
#84 = CARTESIAN_POINT ( 'NONE',  ( 5.000000000000000000, 0.000000000000000000, 0.000000000000000000 ) ) ;
#85 = DIRECTION ( 'NONE',  ( 1.000000000000000000, -0.000000000000000000, -0.000000000000000000 ) ) ;
#86 = AXIS2_PLACEMENT_3D ( 'NONE', #153, #169, #245 ) ;
#87 = CARTESIAN_POINT ( 'NONE',  ( 5.000000000000000000, 9.154234823626477568E-15, -74.75000000000009948 ) ) ;
#88 = DIRECTION ( 'NONE',  ( 0.000000000000000000, 0.000000000000000000, 1.000000000000000000 ) ) ;
#89 = CARTESIAN_POINT ( 'NONE',  ( 5.000000000000000000, 0.000000000000000000, 0.000000000000000000 ) ) ;
#90 = APPROVAL_PERSON_ORGANIZATION ( #274, #26, #213 ) ;
#91 = FACE_OUTER_BOUND ( 'NONE', #187, .T. ) ;
#92 = APPROVAL_STATUS ( 'not_yet_approved' ) ;
#93 = AXIS2_PLACEMENT_3D ( 'NONE', #230, #149, #41 ) ;
#94 = ADVANCED_FACE ( 'NONE', ( #91 ), #205, .F. ) ;
#95 = EDGE_CURVE ( 'NONE', #80, #74, #191, .T. ) ;
#96 = FACE_OUTER_BOUND ( 'NONE', #194, .T. ) ;
#97 = EDGE_CURVE ( 'NONE', #176, #12, #254, .T. ) ;
#98 = VECTOR ( 'NONE', #49, 1000.000000000000000 ) ;
#99 = FACE_OUTER_BOUND ( 'NONE', #255, .T. ) ;
#100 = APPROVAL ( #92, 'UNSPECIFIED' ) ;
#101 = LOCAL_TIME ( 9, 21, 51.00000000000000000, #47 ) ;
#102 = DIRECTION ( 'NONE',  ( 0.000000000000000000, 0.000000000000000000, -1.000000000000000000 ) ) ;
#103 = AXIS2_PLACEMENT_3D ( 'NONE', #244, #88, #51 ) ;
#104 = DIRECTION ( 'NONE',  ( -1.000000000000000000, -0.000000000000000000, -0.000000000000000000 ) ) ;
#105 = AXIS2_PLACEMENT_3D ( 'NONE', #233, #44, #83 ) ;
#106 = CARTESIAN_POINT ( 'NONE',  ( -4.750000000000000000, 0.000000000000000000, 0.000000000000000000 ) ) ;
#107 = CARTESIAN_POINT ( 'NONE',  ( 5.000000000000000000, 0.000000000000000000, 0.000000000000000000 ) ) ;
#108 = AXIS2_PLACEMENT_3D ( 'NONE', #21, #104, #82 ) ;
#109 = PERSON_AND_ORGANIZATION_ROLE ( 'creator' ) ;
#110 = PERSON_AND_ORGANIZATION_ROLE ( 'design_supplier' ) ;
#111 = APPROVAL_STATUS ( 'not_yet_approved' ) ;
#112 = CONICAL_SURFACE ( 'NONE', #134, 75.00000000000001421, 0.7853981633974206344 ) ;
#113 =( LENGTH_UNIT ( ) NAMED_UNIT ( * ) SI_UNIT ( .MILLI., .METRE. ) );
#114 = PRODUCT_RELATED_PRODUCT_CATEGORY ( 'detail', '', ( #22 ) ) ;
#115 = ORIENTED_EDGE ( 'NONE', *, *, #221, .T. ) ;
#116 = PERSON_AND_ORGANIZATION ( #166, #168 ) ;
#117 = PRODUCT_DEFINITION_SHAPE ( 'NONE', 'NONE',  #76 ) ;
#118 = PERSON_AND_ORGANIZATION ( #166, #168 ) ;
#119 = CARTESIAN_POINT ( 'NONE',  ( 4.750000000000096811, 9.184850993605150311E-15, -75.00000000000001421 ) ) ;
#120 = ORIENTED_EDGE ( 'NONE', *, *, #27, .F. ) ;
#121 = CARTESIAN_POINT ( 'NONE',  ( 5.000000000000000000, 0.000000000000000000, 0.000000000000000000 ) ) ;
#122 = FACE_OUTER_BOUND ( 'NONE', #165, .T. ) ;
#123 = DIRECTION ( 'NONE',  ( -1.000000000000000000, -0.000000000000000000, -0.000000000000000000 ) ) ;
#124 = ADVANCED_BREP_SHAPE_REPRESENTATION ( 'Web Model 11858_17300', ( #65, #103 ), #197 ) ;
#125 = DIRECTION ( 'NONE',  ( 1.000000000000000000, -0.000000000000000000, -0.000000000000000000 ) ) ;
#126 = ORIENTED_EDGE ( 'NONE', *, *, #6, .T. ) ;
#127 = PERSON_AND_ORGANIZATION_ROLE ( 'design_owner' ) ;
#128 = EDGE_LOOP ( 'NONE', ( #226, #141 ) ) ;
#129 = FACE_OUTER_BOUND ( 'NONE', #247, .T. ) ;
#130 = COORDINATED_UNIVERSAL_TIME_OFFSET ( 5, 0, .BEHIND. ) ;
#131 = ADVANCED_FACE ( 'NONE', ( #259 ), #112, .T. ) ;
#132 = PERSON_AND_ORGANIZATION_ROLE ( 'classification_officer' ) ;
#133 = DATE_TIME_ROLE ( 'creation_date' ) ;
#134 = AXIS2_PLACEMENT_3D ( 'NONE', #106, #85, #18 ) ;
#135 = ORIENTED_EDGE ( 'NONE', *, *, #182, .T. ) ;
#136 = CC_DESIGN_APPROVAL ( #26, ( #76 ) ) ;
#137 = VERTEX_POINT ( 'NONE', #147 ) ;
#138 = CIRCLE ( 'NONE', #108, 74.75000000000002842 ) ;
#139 = EDGE_CURVE ( 'NONE', #56, #12, #142, .T. ) ;
#140 = ORIENTED_EDGE ( 'NONE', *, *, #97, .T. ) ;
#141 = ORIENTED_EDGE ( 'NONE', *, *, #95, .T. ) ;
#142 = CIRCLE ( 'NONE', #32, 75.00000000000001421 ) ;
#143 = CALENDAR_DATE ( 2021, 9, 4 ) ;
#144 = DIRECTION ( 'NONE',  ( 0.7071067811865671127, 0.000000000000000000, -0.7071067811865279218 ) ) ;
#145 = DIRECTION ( 'NONE',  ( 0.000000000000000000, 0.000000000000000000, -1.000000000000000000 ) ) ;
#146 = CC_DESIGN_PERSON_AND_ORGANIZATION_ASSIGNMENT ( #57, #127, ( #22 ) ) ;
#147 = CARTESIAN_POINT ( 'NONE',  ( -5.000000000000000000, 0.000000000000000000, -74.75000000000002842 ) ) ;
#148 = ORIENTED_EDGE ( 'NONE', *, *, #270, .F. ) ;
#149 = DIRECTION ( 'NONE',  ( 1.000000000000000000, 0.000000000000000000, 0.000000000000000000 ) ) ;
#150 = COORDINATED_UNIVERSAL_TIME_OFFSET ( 5, 0, .BEHIND. ) ;
#151 = CALENDAR_DATE ( 2021, 9, 4 ) ;
#152 = DIRECTION ( 'NONE',  ( 0.000000000000000000, 0.000000000000000000, 1.000000000000000000 ) ) ;
#153 = CARTESIAN_POINT ( 'NONE',  ( -5.000000000000000000, 0.000000000000000000, 0.000000000000000000 ) ) ;
#154 = DIRECTION ( 'NONE',  ( 0.000000000000000000, 0.000000000000000000, -1.000000000000000000 ) ) ;
#155 = LINE ( 'NONE', #38, #196 ) ;
#156 = ADVANCED_FACE ( 'NONE', ( #129 ), #179, .T. ) ;
#157 = EDGE_LOOP ( 'NONE', ( #15, #140, #68, #4 ) ) ;
#158 = PERSON_AND_ORGANIZATION ( #166, #168 ) ;
#159 = ORIENTED_EDGE ( 'NONE', *, *, #206, .T. ) ;
#160 = LOCAL_TIME ( 9, 21, 51.00000000000000000, #5 ) ;
#161 = APPROVAL_PERSON_ORGANIZATION ( #242, #39, #7 ) ;
#162 = CC_DESIGN_SECURITY_CLASSIFICATION ( #33, ( #273 ) ) ;
#163 = CARTESIAN_POINT ( 'NONE',  ( -4.750000000000000000, 0.000000000000000000, 0.000000000000000000 ) ) ;
#164 = EDGE_CURVE ( 'NONE', #74, #80, #35, .T. ) ;
#165 = EDGE_LOOP ( 'NONE', ( #272, #66, #234, #177 ) ) ;
#166 = PERSON ( 'UNSPECIFIED', 'UNSPECIFIED', 'UNSPECIFIED', ('UNSPECIFIED'), ('UNSPECIFIED'), ('UNSPECIFIED') ) ;
#167 = DIRECTION ( 'NONE',  ( 1.000000000000000000, 0.000000000000000000, 0.000000000000000000 ) ) ;
#168 = ORGANIZATION ( 'UNSPECIFIED', 'UNSPECIFIED', '' ) ;
#169 = DIRECTION ( 'NONE',  ( -1.000000000000000000, -0.000000000000000000, -0.000000000000000000 ) ) ;
#170 = APPLICATION_PROTOCOL_DEFINITION ( 'international standard', 'config_control_design', 1994, #265 ) ;
#171 = ORIENTED_EDGE ( 'NONE', *, *, #182, .F. ) ;
#172 = APPROVAL_DATE_TIME ( #228, #26 ) ;
#173 = CARTESIAN_POINT ( 'NONE',  ( 5.000000000000000000, 0.000000000000000000, 0.000000000000000000 ) ) ;
#174 = DIRECTION ( 'NONE',  ( -1.000000000000000000, 0.000000000000000000, 0.000000000000000000 ) ) ;
#175 = ORIENTED_EDGE ( 'NONE', *, *, #214, .F. ) ;
#176 = VERTEX_POINT ( 'NONE', #275 ) ;
#177 = ORIENTED_EDGE ( 'NONE', *, *, #269, .F. ) ;
#178 = ORIENTED_EDGE ( 'NONE', *, *, #206, .F. ) ;
#179 = CONICAL_SURFACE ( 'NONE', #53, 75.00000000000001421, 0.7853981633974206344 ) ;
#180 = CARTESIAN_POINT ( 'NONE',  ( -4.750000000000000000, 0.000000000000000000, 75.00000000000001421 ) ) ;
#181 = VECTOR ( 'NONE', #183, 1000.000000000000000 ) ;
#182 = EDGE_CURVE ( 'NONE', #34, #73, #264, .T. ) ;
#183 = DIRECTION ( 'NONE',  ( 0.7071067811865671127, 8.659560562354692502E-17, 0.7071067811865279218 ) ) ;
#184 = DIRECTION ( 'NONE',  ( 0.000000000000000000, 0.000000000000000000, 1.000000000000000000 ) ) ;
#185 = EDGE_CURVE ( 'NONE', #137, #176, #138, .T. ) ;
#186 = EDGE_LOOP ( 'NONE', ( #193, #159, #175, #31 ) ) ;
#187 = EDGE_LOOP ( 'NONE', ( #258, #115 ) ) ;
#188 = CC_DESIGN_PERSON_AND_ORGANIZATION_ASSIGNMENT ( #253, #110, ( #273 ) ) ;
#189 = CARTESIAN_POINT ( 'NONE',  ( 5.000000000000000000, 9.184850993605150311E-15, -75.00000000000001421 ) ) ;
#190 = LOCAL_TIME ( 9, 21, 51.00000000000000000, #150 ) ;
#191 = CIRCLE ( 'NONE', #246, 74.75000000000009948 ) ;
#192 = APPROVAL_ROLE ( '' ) ;
#193 = ORIENTED_EDGE ( 'NONE', *, *, #95, .F. ) ;
#194 = EDGE_LOOP ( 'NONE', ( #178, #216, #241, #171 ) ) ;
#195 = LINE ( 'NONE', #189, #67 ) ;
#196 = VECTOR ( 'NONE', #63, 1000.000000000000000 ) ;
#197 =( GEOMETRIC_REPRESENTATION_CONTEXT ( 3 ) GLOBAL_UNCERTAINTY_ASSIGNED_CONTEXT ( ( #225 ) ) GLOBAL_UNIT_ASSIGNED_CONTEXT ( ( #113, #263, #239 ) ) REPRESENTATION_CONTEXT ( 'NONE', 'WORKASPACE' ) );
#198 = PLANE ( 'NONE',  #10 ) ;
#199 = DIRECTION ( 'NONE',  ( 0.000000000000000000, 0.000000000000000000, -1.000000000000000000 ) ) ;
#200 = DIRECTION ( 'NONE',  ( 1.000000000000000000, -0.000000000000000000, -0.000000000000000000 ) ) ;
#201 = CC_DESIGN_APPROVAL ( #39, ( #33 ) ) ;
#202 = DIRECTION ( 'NONE',  ( 0.000000000000000000, 0.000000000000000000, -1.000000000000000000 ) ) ;
#203 = CARTESIAN_POINT ( 'NONE',  ( 4.750000000000096811, 0.000000000000000000, 75.00000000000001421 ) ) ;
#204 = LINE ( 'NONE', #87, #40 ) ;
#205 = PLANE ( 'NONE',  #20 ) ;
#206 = EDGE_CURVE ( 'NONE', #80, #34, #204, .T. ) ;
#207 = DIRECTION ( 'NONE',  ( 0.000000000000000000, 0.000000000000000000, 1.000000000000000000 ) ) ;
#208 = AXIS2_PLACEMENT_3D ( 'NONE', #89, #8, #209 ) ;
#209 = DIRECTION ( 'NONE',  ( 0.000000000000000000, 0.000000000000000000, 1.000000000000000000 ) ) ;
#210 = ORIENTED_EDGE ( 'NONE', *, *, #27, .T. ) ;
#211 = APPLICATION_PROTOCOL_DEFINITION ( 'international standard', 'config_control_design', 1994, #24 ) ;
#212 = CARTESIAN_POINT ( 'NONE',  ( 5.000000000000000000, 0.000000000000000000, 75.00000000000001421 ) ) ;
#213 = APPROVAL_ROLE ( '' ) ;
#214 = EDGE_CURVE ( 'NONE', #73, #34, #217, .T. ) ;
#215 = DATE_TIME_ROLE ( 'classification_date' ) ;
#216 = ORIENTED_EDGE ( 'NONE', *, *, #164, .F. ) ;
#217 = CIRCLE ( 'NONE', #223, 75.00000000000001421 ) ;
#218 = DATE_AND_TIME ( #151, #75 ) ;
#219 = COORDINATED_UNIVERSAL_TIME_OFFSET ( 5, 0, .BEHIND. ) ;
#220 = CIRCLE ( 'NONE', #77, 75.00000000000001421 ) ;
#221 = EDGE_CURVE ( 'NONE', #176, #137, #81, .T. ) ;
#222 = APPROVAL_DATE_TIME ( #16, #39 ) ;
#223 = AXIS2_PLACEMENT_3D ( 'NONE', #23, #174, #154 ) ;
#224 = DIRECTION ( 'NONE',  ( 1.000000000000000000, 0.000000000000000000, 0.000000000000000000 ) ) ;
#225 = UNCERTAINTY_MEASURE_WITH_UNIT (LENGTH_MEASURE( 1.000000000000000082E-05 ), #113, 'distance_accuracy_value', 'NONE');
#226 = ORIENTED_EDGE ( 'NONE', *, *, #164, .T. ) ;
#227 = DIRECTION ( 'NONE',  ( -0.7071067811865279218, 8.659560562355175679E-17, -0.7071067811865672237 ) ) ;
#228 = DATE_AND_TIME ( #29, #160 ) ;
#229 = AXIS2_PLACEMENT_3D ( 'NONE', #58, #123, #184 ) ;
#230 = CARTESIAN_POINT ( 'NONE',  ( 5.000000000000000000, 0.000000000000000000, 0.000000000000000000 ) ) ;
#231 = CC_DESIGN_DATE_AND_TIME_ASSIGNMENT ( #218, #215, ( #33 ) ) ;
#232 = DIRECTION ( 'NONE',  ( 0.000000000000000000, 0.000000000000000000, -1.000000000000000000 ) ) ;
#233 = CARTESIAN_POINT ( 'NONE',  ( 4.750000000000096811, 0.000000000000000000, 0.000000000000000000 ) ) ;
#234 = ORIENTED_EDGE ( 'NONE', *, *, #139, .T. ) ;
#235 = CARTESIAN_POINT ( 'NONE',  ( 5.000000000000000000, 9.169542908615813151E-15, -74.75000000000009948 ) ) ;
#236 = ADVANCED_FACE ( 'NONE', ( #122 ), #55, .T. ) ;
#237 = APPROVAL_STATUS ( 'not_yet_approved' ) ;
#238 = DESIGN_CONTEXT ( 'detailed design', #265, 'design' ) ;
#239 =( NAMED_UNIT ( * ) SI_UNIT ( $, .STERADIAN. ) SOLID_ANGLE_UNIT ( ) );
#240 = DIRECTION ( 'NONE',  ( -1.000000000000000000, -0.000000000000000000, -0.000000000000000000 ) ) ;
#241 = ORIENTED_EDGE ( 'NONE', *, *, #71, .T. ) ;
#242 = PERSON_AND_ORGANIZATION ( #166, #168 ) ;
#243 = DATE_AND_TIME ( #143, #54 ) ;
#244 = CARTESIAN_POINT ( 'NONE',  ( 0.000000000000000000, 0.000000000000000000, 0.000000000000000000 ) ) ;
#245 = DIRECTION ( 'NONE',  ( 0.000000000000000000, 0.000000000000000000, -1.000000000000000000 ) ) ;
#246 = AXIS2_PLACEMENT_3D ( 'NONE', #84, #3, #202 ) ;
#247 = EDGE_LOOP ( 'NONE', ( #251, #45, #126, #120 ) ) ;
#248 = ADVANCED_FACE ( 'NONE', ( #52 ), #69, .T. ) ;
#249 = VECTOR ( 'NONE', #144, 1000.000000000000000 ) ;
#250 = CC_DESIGN_PERSON_AND_ORGANIZATION_ASSIGNMENT ( #158, #109, ( #273 ) ) ;
#251 = ORIENTED_EDGE ( 'NONE', *, *, #97, .F. ) ;
#252 = DATE_AND_TIME ( #25, #190 ) ;
#253 = PERSON_AND_ORGANIZATION ( #166, #168 ) ;
#254 = LINE ( 'NONE', #260, #181 ) ;
#255 = EDGE_LOOP ( 'NONE', ( #148, #135, #11, #210 ) ) ;
#256 = PERSON_AND_ORGANIZATION ( #166, #168 ) ;
#257 = APPROVAL_DATE_TIME ( #243, #100 ) ;
#258 = ORIENTED_EDGE ( 'NONE', *, *, #185, .T. ) ;
#259 = FACE_OUTER_BOUND ( 'NONE', #157, .T. ) ;
#260 = CARTESIAN_POINT ( 'NONE',  ( -4.750000000000000000, 9.184850993605150311E-15, 75.00000000000001421 ) ) ;
#261 = DIRECTION ( 'NONE',  ( -1.000000000000000000, 0.000000000000000000, 0.000000000000000000 ) ) ;
#262 = CC_DESIGN_PERSON_AND_ORGANIZATION_ASSIGNMENT ( #116, #132, ( #33 ) ) ;
#263 =( NAMED_UNIT ( * ) PLANE_ANGLE_UNIT ( ) SI_UNIT ( $, .RADIAN. ) );
#264 = CIRCLE ( 'NONE', #105, 75.00000000000001421 ) ;
#265 = APPLICATION_CONTEXT ( 'configuration controlled 3d designs of mechanical parts and assemblies' ) ;
#266 = AXIS2_PLACEMENT_3D ( 'NONE', #107, #261, #207 ) ;
#267 = PERSON_AND_ORGANIZATION_ROLE ( 'creator' ) ;
#268 = FACE_OUTER_BOUND ( 'NONE', #128, .T. ) ;
#269 = EDGE_CURVE ( 'NONE', #73, #12, #13, .T. ) ;
#270 = EDGE_CURVE ( 'NONE', #34, #56, #195, .T. ) ;
#271 = CARTESIAN_POINT ( 'NONE',  ( -4.750000000000000000, 0.000000000000000000, -75.00000000000001421 ) ) ;
#272 = ORIENTED_EDGE ( 'NONE', *, *, #214, .T. ) ;
#273 = PRODUCT_DEFINITION_FORMATION_WITH_SPECIFIED_SOURCE ( 'ANY', '', #22, .NOT_KNOWN. ) ;
#274 = PERSON_AND_ORGANIZATION ( #166, #168 ) ;
#275 = CARTESIAN_POINT ( 'NONE',  ( -5.000000000000000000, 9.169542908615809995E-15, 74.75000000000002842 ) ) ;
ENDSEC;
END-ISO-10303-21;
