ISO-10303-21;
HEADER;
FILE_DESCRIPTION (( 'STEP AP203' ),
    '1' );
FILE_NAME ('Web Model 19724_19727.step',
    '2021-11-02T19:07:44',
    ( '' ),
    ( '' ),
    'SwSTEP 2.0',
    'SolidWorks 2018',
    '' );
FILE_SCHEMA (( 'CONFIG_CONTROL_DESIGN' ));
ENDSEC;

DATA;
#1 = APPROVAL ( #145, 'UNSPECIFIED' ) ;
#2 = ORIENTED_EDGE ( 'NONE', *, *, #92, .F. ) ;
#3 = LOCAL_TIME ( 15, 7, 44.00000000000000000, #29 ) ;
#4 = APPROVAL_DATE_TIME ( #124, #102 ) ;
#5 = AXIS2_PLACEMENT_3D ( 'NONE', #152, #89, #117 ) ;
#6 = PERSON_AND_ORGANIZATION ( #135, #98 ) ;
#7 = DIRECTION ( 'NONE',  ( 0.000000000000000000, 0.000000000000000000, 1.000000000000000000 ) ) ;
#8 = CARTESIAN_POINT ( 'NONE',  ( 0.000000000000000000, 0.000000000000000000, 2.000000000000000000 ) ) ;
#9 =( NAMED_UNIT ( * ) PLANE_ANGLE_UNIT ( ) SI_UNIT ( $, .RADIAN. ) );
#10 = PERSON_AND_ORGANIZATION_ROLE ( 'creator' ) ;
#11 = CC_DESIGN_APPROVAL ( #1, ( #106 ) ) ;
#12 = PERSON_AND_ORGANIZATION ( #135, #98 ) ;
#13 = UNCERTAINTY_MEASURE_WITH_UNIT (LENGTH_MEASURE( 1.000000000000000082E-05 ), #39, 'distance_accuracy_value', 'NONE');
#14 = DIRECTION ( 'NONE',  ( 1.000000000000000000, 0.000000000000000000, 0.000000000000000000 ) ) ;
#15 = CC_DESIGN_PERSON_AND_ORGANIZATION_ASSIGNMENT ( #58, #130, ( #72 ) ) ;
#16 = ADVANCED_FACE ( 'NONE', ( #159 ), #17, .T. ) ;
#17 = CYLINDRICAL_SURFACE ( 'NONE', #87, 10.00000000000000000 ) ;
#18 = PERSON_AND_ORGANIZATION ( #135, #98 ) ;
#19 =( GEOMETRIC_REPRESENTATION_CONTEXT ( 3 ) GLOBAL_UNCERTAINTY_ASSIGNED_CONTEXT ( ( #13 ) ) GLOBAL_UNIT_ASSIGNED_CONTEXT ( ( #39, #9, #69 ) ) REPRESENTATION_CONTEXT ( 'NONE', 'WORKASPACE' ) );
#20 = LOCAL_TIME ( 15, 7, 44.00000000000000000, #59 ) ;
#21 = ADVANCED_BREP_SHAPE_REPRESENTATION ( 'Web Model 19724_19727', ( #97, #5 ), #19 ) ;
#22 = CIRCLE ( 'NONE', #46, 10.00000000000000000 ) ;
#23 = APPROVAL ( #54, 'UNSPECIFIED' ) ;
#24 = CALENDAR_DATE ( 2021, 2, 11 ) ;
#25 = DIRECTION ( 'NONE',  ( -1.000000000000000000, 0.000000000000000000, 0.000000000000000000 ) ) ;
#26 = EDGE_CURVE ( 'NONE', #101, #44, #40, .T. ) ;
#27 = APPROVAL_ROLE ( '' ) ;
#28 = ADVANCED_FACE ( 'NONE', ( #122 ), #65, .T. ) ;
#29 = COORDINATED_UNIVERSAL_TIME_OFFSET ( 5, 0, .BEHIND. ) ;
#30 = AXIS2_PLACEMENT_3D ( 'NONE', #8, #105, #14 ) ;
#31 = APPROVAL_PERSON_ORGANIZATION ( #18, #23, #27 ) ;
#32 = CC_DESIGN_DATE_AND_TIME_ASSIGNMENT ( #99, #116, ( #106 ) ) ;
#33 = ORIENTED_EDGE ( 'NONE', *, *, #26, .T. ) ;
#34 = CARTESIAN_POINT ( 'NONE',  ( 10.00000000000000000, 1.224646799147353256E-15, 2.000000000000000000 ) ) ;
#35 = DIRECTION ( 'NONE',  ( -1.000000000000000000, 0.000000000000000000, 0.000000000000000000 ) ) ;
#36 = PERSON_AND_ORGANIZATION_ROLE ( 'classification_officer' ) ;
#37 = DIRECTION ( 'NONE',  ( -0.000000000000000000, -0.000000000000000000, -1.000000000000000000 ) ) ;
#38 = EDGE_LOOP ( 'NONE', ( #33, #88 ) ) ;
#39 =( LENGTH_UNIT ( ) NAMED_UNIT ( * ) SI_UNIT ( .MILLI., .METRE. ) );
#40 = CIRCLE ( 'NONE', #151, 10.00000000000000000 ) ;
#41 = CARTESIAN_POINT ( 'NONE',  ( -10.00000000000000000, 0.000000000000000000, 2.000000000000000000 ) ) ;
#42 = EDGE_CURVE ( 'NONE', #44, #174, #156, .T. ) ;
#43 = PRODUCT_DEFINITION_FORMATION_WITH_SPECIFIED_SOURCE ( 'ANY', '', #72, .NOT_KNOWN. ) ;
#44 = VERTEX_POINT ( 'NONE', #126 ) ;
#45 = ORIENTED_EDGE ( 'NONE', *, *, #42, .F. ) ;
#46 = AXIS2_PLACEMENT_3D ( 'NONE', #127, #115, #166 ) ;
#47 = SHAPE_DEFINITION_REPRESENTATION ( #128, #21 ) ;
#48 = CARTESIAN_POINT ( 'NONE',  ( 0.000000000000000000, 0.000000000000000000, 2.000000000000000000 ) ) ;
#49 = CALENDAR_DATE ( 2021, 2, 11 ) ;
#50 = DIRECTION ( 'NONE',  ( -0.000000000000000000, -0.000000000000000000, -1.000000000000000000 ) ) ;
#51 = PLANE ( 'NONE',  #52 ) ;
#52 = AXIS2_PLACEMENT_3D ( 'NONE', #82, #7, #110 ) ;
#53 = CIRCLE ( 'NONE', #30, 10.00000000000000000 ) ;
#54 = APPROVAL_STATUS ( 'not_yet_approved' ) ;
#55 = CARTESIAN_POINT ( 'NONE',  ( -10.00000000000000000, 0.000000000000000000, 2.000000000000000000 ) ) ;
#56 = AXIS2_PLACEMENT_3D ( 'NONE', #153, #103, #86 ) ;
#57 = APPLICATION_CONTEXT ( 'configuration controlled 3d designs of mechanical parts and assemblies' ) ;
#58 = PERSON_AND_ORGANIZATION ( #135, #98 ) ;
#59 = COORDINATED_UNIVERSAL_TIME_OFFSET ( 5, 0, .BEHIND. ) ;
#60 = APPLICATION_CONTEXT ( 'configuration controlled 3d designs of mechanical parts and assemblies' ) ;
#61 = PERSON_AND_ORGANIZATION_ROLE ( 'creator' ) ;
#62 = ORIENTED_EDGE ( 'NONE', *, *, #92, .T. ) ;
#63 = COORDINATED_UNIVERSAL_TIME_OFFSET ( 5, 0, .BEHIND. ) ;
#64 = CC_DESIGN_DATE_AND_TIME_ASSIGNMENT ( #67, #140, ( #143 ) ) ;
#65 = CYLINDRICAL_SURFACE ( 'NONE', #168, 10.00000000000000000 ) ;
#66 = CC_DESIGN_APPROVAL ( #102, ( #43 ) ) ;
#67 = DATE_AND_TIME ( #95, #109 ) ;
#68 = DIRECTION ( 'NONE',  ( 0.000000000000000000, 0.000000000000000000, 1.000000000000000000 ) ) ;
#69 =( NAMED_UNIT ( * ) SI_UNIT ( $, .STERADIAN. ) SOLID_ANGLE_UNIT ( ) );
#70 = ADVANCED_FACE ( 'NONE', ( #121 ), #51, .T. ) ;
#71 = CC_DESIGN_APPROVAL ( #23, ( #143 ) ) ;
#72 = PRODUCT ( 'Web Model 19724_19727', 'Web Model 19724_19727', '', ( #91 ) ) ;
#73 = CLOSED_SHELL ( 'NONE', ( #16, #28, #70, #93 ) ) ;
#74 = VECTOR ( 'NONE', #37, 1000.000000000000000 ) ;
#75 = COORDINATED_UNIVERSAL_TIME_OFFSET ( 5, 0, .BEHIND. ) ;
#76 = ORIENTED_EDGE ( 'NONE', *, *, #100, .T. ) ;
#77 = APPROVAL_PERSON_ORGANIZATION ( #160, #1, #85 ) ;
#78 = DATE_AND_TIME ( #146, #173 ) ;
#79 = VERTEX_POINT ( 'NONE', #170 ) ;
#80 = ORIENTED_EDGE ( 'NONE', *, *, #120, .T. ) ;
#81 = DIRECTION ( 'NONE',  ( -0.000000000000000000, -0.000000000000000000, -1.000000000000000000 ) ) ;
#82 = CARTESIAN_POINT ( 'NONE',  ( 0.000000000000000000, 0.000000000000000000, 2.000000000000000000 ) ) ;
#83 = APPROVAL_DATE_TIME ( #141, #1 ) ;
#84 = PERSON_AND_ORGANIZATION ( #135, #98 ) ;
#85 = APPROVAL_ROLE ( '' ) ;
#86 = DIRECTION ( 'NONE',  ( 1.000000000000000000, 0.000000000000000000, -0.000000000000000000 ) ) ;
#87 = AXIS2_PLACEMENT_3D ( 'NONE', #139, #113, #25 ) ;
#88 = ORIENTED_EDGE ( 'NONE', *, *, #161, .T. ) ;
#89 = DIRECTION ( 'NONE',  ( 0.000000000000000000, 0.000000000000000000, 1.000000000000000000 ) ) ;
#90 = ORIENTED_EDGE ( 'NONE', *, *, #161, .F. ) ;
#91 = MECHANICAL_CONTEXT ( 'NONE', #57, 'mechanical' ) ;
#92 = EDGE_CURVE ( 'NONE', #101, #79, #163, .T. ) ;
#93 = ADVANCED_FACE ( 'NONE', ( #111 ), #119, .F. ) ;
#94 = ORIENTED_EDGE ( 'NONE', *, *, #120, .F. ) ;
#95 = CALENDAR_DATE ( 2021, 2, 11 ) ;
#96 = LOCAL_TIME ( 15, 7, 44.00000000000000000, #162 ) ;
#97 = MANIFOLD_SOLID_BREP ( 'Boss-Extrude1', #73 ) ;
#98 = ORGANIZATION ( 'UNSPECIFIED', 'UNSPECIFIED', '' ) ;
#99 = DATE_AND_TIME ( #49, #96 ) ;
#100 = EDGE_CURVE ( 'NONE', #79, #174, #22, .T. ) ;
#101 = VERTEX_POINT ( 'NONE', #55 ) ;
#102 = APPROVAL ( #104, 'UNSPECIFIED' ) ;
#103 = DIRECTION ( 'NONE',  ( 0.000000000000000000, 0.000000000000000000, 1.000000000000000000 ) ) ;
#104 = APPROVAL_STATUS ( 'not_yet_approved' ) ;
#105 = DIRECTION ( 'NONE',  ( 0.000000000000000000, 0.000000000000000000, 1.000000000000000000 ) ) ;
#106 = PRODUCT_DEFINITION ( 'UNKNOWN', '', #43, #175 ) ;
#107 = CC_DESIGN_PERSON_AND_ORGANIZATION_ASSIGNMENT ( #6, #61, ( #106 ) ) ;
#108 = EDGE_LOOP ( 'NONE', ( #45, #154, #62, #76 ) ) ;
#109 = LOCAL_TIME ( 15, 7, 44.00000000000000000, #75 ) ;
#110 = DIRECTION ( 'NONE',  ( 1.000000000000000000, 0.000000000000000000, -0.000000000000000000 ) ) ;
#111 = FACE_OUTER_BOUND ( 'NONE', #138, .T. ) ;
#112 = CARTESIAN_POINT ( 'NONE',  ( 0.000000000000000000, 0.000000000000000000, 2.000000000000000000 ) ) ;
#113 = DIRECTION ( 'NONE',  ( -0.000000000000000000, -0.000000000000000000, -1.000000000000000000 ) ) ;
#114 = SECURITY_CLASSIFICATION_LEVEL ( 'unclassified' ) ;
#115 = DIRECTION ( 'NONE',  ( 0.000000000000000000, 0.000000000000000000, 1.000000000000000000 ) ) ;
#116 = DATE_TIME_ROLE ( 'creation_date' ) ;
#117 = DIRECTION ( 'NONE',  ( 1.000000000000000000, 0.000000000000000000, 0.000000000000000000 ) ) ;
#118 = ORIENTED_EDGE ( 'NONE', *, *, #100, .F. ) ;
#119 = PLANE ( 'NONE',  #56 ) ;
#120 = EDGE_CURVE ( 'NONE', #174, #79, #148, .T. ) ;
#121 = FACE_OUTER_BOUND ( 'NONE', #38, .T. ) ;
#122 = FACE_OUTER_BOUND ( 'NONE', #108, .T. ) ;
#123 = VECTOR ( 'NONE', #81, 1000.000000000000000 ) ;
#124 = DATE_AND_TIME ( #24, #20 ) ;
#125 = CC_DESIGN_PERSON_AND_ORGANIZATION_ASSIGNMENT ( #133, #157, ( #43 ) ) ;
#126 = CARTESIAN_POINT ( 'NONE',  ( 10.00000000000000000, 1.224646799147353256E-15, 2.000000000000000000 ) ) ;
#127 = CARTESIAN_POINT ( 'NONE',  ( 0.000000000000000000, 0.000000000000000000, 0.000000000000000000 ) ) ;
#128 = PRODUCT_DEFINITION_SHAPE ( 'NONE', 'NONE',  #106 ) ;
#129 = APPROVAL_PERSON_ORGANIZATION ( #12, #102, #171 ) ;
#130 = PERSON_AND_ORGANIZATION_ROLE ( 'design_owner' ) ;
#131 = APPLICATION_PROTOCOL_DEFINITION ( 'international standard', 'config_control_design', 1994, #57 ) ;
#132 = CALENDAR_DATE ( 2021, 2, 11 ) ;
#133 = PERSON_AND_ORGANIZATION ( #135, #98 ) ;
#134 = CC_DESIGN_PERSON_AND_ORGANIZATION_ASSIGNMENT ( #136, #10, ( #43 ) ) ;
#135 = PERSON ( 'UNSPECIFIED', 'UNSPECIFIED', 'UNSPECIFIED', ('UNSPECIFIED'), ('UNSPECIFIED'), ('UNSPECIFIED') ) ;
#136 = PERSON_AND_ORGANIZATION ( #135, #98 ) ;
#137 = APPROVAL_DATE_TIME ( #78, #23 ) ;
#138 = EDGE_LOOP ( 'NONE', ( #118, #94 ) ) ;
#139 = CARTESIAN_POINT ( 'NONE',  ( 0.000000000000000000, 0.000000000000000000, 2.000000000000000000 ) ) ;
#140 = DATE_TIME_ROLE ( 'classification_date' ) ;
#141 = DATE_AND_TIME ( #132, #3 ) ;
#142 = CARTESIAN_POINT ( 'NONE',  ( 0.000000000000000000, 0.000000000000000000, 0.000000000000000000 ) ) ;
#143 = SECURITY_CLASSIFICATION ( '', '', #114 ) ;
#144 = DIRECTION ( 'NONE',  ( 0.000000000000000000, 0.000000000000000000, 1.000000000000000000 ) ) ;
#145 = APPROVAL_STATUS ( 'not_yet_approved' ) ;
#146 = CALENDAR_DATE ( 2021, 2, 11 ) ;
#147 = ORIENTED_EDGE ( 'NONE', *, *, #42, .T. ) ;
#148 = CIRCLE ( 'NONE', #172, 10.00000000000000000 ) ;
#149 = DIRECTION ( 'NONE',  ( 1.000000000000000000, 0.000000000000000000, 0.000000000000000000 ) ) ;
#150 = DIRECTION ( 'NONE',  ( 1.000000000000000000, 0.000000000000000000, 0.000000000000000000 ) ) ;
#151 = AXIS2_PLACEMENT_3D ( 'NONE', #48, #68, #149 ) ;
#152 = CARTESIAN_POINT ( 'NONE',  ( 0.000000000000000000, 0.000000000000000000, 0.000000000000000000 ) ) ;
#153 = CARTESIAN_POINT ( 'NONE',  ( 0.000000000000000000, 0.000000000000000000, 0.000000000000000000 ) ) ;
#154 = ORIENTED_EDGE ( 'NONE', *, *, #26, .F. ) ;
#155 = CARTESIAN_POINT ( 'NONE',  ( 10.00000000000000000, 1.224646799147353256E-15, 0.000000000000000000 ) ) ;
#156 = LINE ( 'NONE', #34, #123 ) ;
#157 = PERSON_AND_ORGANIZATION_ROLE ( 'design_supplier' ) ;
#158 = PRODUCT_RELATED_PRODUCT_CATEGORY ( 'detail', '', ( #72 ) ) ;
#159 = FACE_OUTER_BOUND ( 'NONE', #167, .T. ) ;
#160 = PERSON_AND_ORGANIZATION ( #135, #98 ) ;
#161 = EDGE_CURVE ( 'NONE', #44, #101, #53, .T. ) ;
#162 = COORDINATED_UNIVERSAL_TIME_OFFSET ( 5, 0, .BEHIND. ) ;
#163 = LINE ( 'NONE', #41, #74 ) ;
#164 = CC_DESIGN_PERSON_AND_ORGANIZATION_ASSIGNMENT ( #84, #36, ( #143 ) ) ;
#165 = APPLICATION_PROTOCOL_DEFINITION ( 'international standard', 'config_control_design', 1994, #60 ) ;
#166 = DIRECTION ( 'NONE',  ( 1.000000000000000000, 0.000000000000000000, 0.000000000000000000 ) ) ;
#167 = EDGE_LOOP ( 'NONE', ( #90, #147, #80, #2 ) ) ;
#168 = AXIS2_PLACEMENT_3D ( 'NONE', #112, #50, #35 ) ;
#169 = CC_DESIGN_SECURITY_CLASSIFICATION ( #143, ( #43 ) ) ;
#170 = CARTESIAN_POINT ( 'NONE',  ( -10.00000000000000000, 0.000000000000000000, 0.000000000000000000 ) ) ;
#171 = APPROVAL_ROLE ( '' ) ;
#172 = AXIS2_PLACEMENT_3D ( 'NONE', #142, #144, #150 ) ;
#173 = LOCAL_TIME ( 15, 7, 44.00000000000000000, #63 ) ;
#174 = VERTEX_POINT ( 'NONE', #155 ) ;
#175 = DESIGN_CONTEXT ( 'detailed design', #60, 'design' ) ;
ENDSEC;
END-ISO-10303-21;
