ISO-10303-21;
HEADER;
FILE_DESCRIPTION (( 'STEP AP203' ),
    '1' );
FILE_NAME ('Web Model 14960_14986.step',
    '2021-06-14T15:12:43',
    ( '' ),
    ( '' ),
    'SwSTEP 2.0',
    'SolidWorks 2018',
    '' );
FILE_SCHEMA (( 'CONFIG_CONTROL_DESIGN' ));
ENDSEC;

DATA;
#1 = EDGE_LOOP ( 'NONE', ( #80, #145, #51, #149 ) ) ;
#2 = DATE_AND_TIME ( #65, #16 ) ;
#3 = CARTESIAN_POINT ( 'NONE',  ( -1.000000000000000000, 9.184850993605147944E-16, -7.500000000000000000 ) ) ;
#4 = APPROVAL ( #142, 'UNSPECIFIED' ) ;
#5 = CARTESIAN_POINT ( 'NONE',  ( -1.000000000000000000, 0.000000000000000000, 0.000000000000000000 ) ) ;
#6 = VECTOR ( 'NONE', #154, 1000.000000000000000 ) ;
#7 = PERSON_AND_ORGANIZATION_ROLE ( 'creator' ) ;
#8 = CARTESIAN_POINT ( 'NONE',  ( 1.000000000000000000, 0.000000000000000000, 0.000000000000000000 ) ) ;
#9 = DIRECTION ( 'NONE',  ( 1.000000000000000000, 0.000000000000000000, 0.000000000000000000 ) ) ;
#10 = CIRCLE ( 'NONE', #19, 7.500000000000000000 ) ;
#11 = APPROVAL_DATE_TIME ( #2, #4 ) ;
#12 = CC_DESIGN_SECURITY_CLASSIFICATION ( #24, ( #39 ) ) ;
#13 = CYLINDRICAL_SURFACE ( 'NONE', #174, 7.500000000000000000 ) ;
#14 = FACE_OUTER_BOUND ( 'NONE', #1, .T. ) ;
#15 = APPROVAL_PERSON_ORGANIZATION ( #114, #4, #37 ) ;
#16 = LOCAL_TIME ( 11, 12, 43.00000000000000000, #48 ) ;
#17 = UNCERTAINTY_MEASURE_WITH_UNIT (LENGTH_MEASURE( 1.000000000000000082E-05 ), #104, 'distance_accuracy_value', 'NONE');
#18 = DIRECTION ( 'NONE',  ( 1.000000000000000000, 0.000000000000000000, 0.000000000000000000 ) ) ;
#19 = AXIS2_PLACEMENT_3D ( 'NONE', #42, #18, #23 ) ;
#20 =( NAMED_UNIT ( * ) PLANE_ANGLE_UNIT ( ) SI_UNIT ( $, .RADIAN. ) );
#21 = COORDINATED_UNIVERSAL_TIME_OFFSET ( 5, 0, .BEHIND. ) ;
#22 = MECHANICAL_CONTEXT ( 'NONE', #157, 'mechanical' ) ;
#23 = DIRECTION ( 'NONE',  ( 0.000000000000000000, 0.000000000000000000, -1.000000000000000000 ) ) ;
#24 = SECURITY_CLASSIFICATION ( '', '', #170 ) ;
#25 = PRODUCT_DEFINITION_SHAPE ( 'NONE', 'NONE',  #133 ) ;
#26 = CC_DESIGN_APPROVAL ( #124, ( #133 ) ) ;
#27 = PERSON_AND_ORGANIZATION ( #164, #96 ) ;
#28 = CARTESIAN_POINT ( 'NONE',  ( 1.000000000000000000, 0.000000000000000000, 0.000000000000000000 ) ) ;
#29 = LOCAL_TIME ( 11, 12, 43.00000000000000000, #140 ) ;
#30 = DIRECTION ( 'NONE',  ( 1.000000000000000000, 0.000000000000000000, 0.000000000000000000 ) ) ;
#31 = DIRECTION ( 'NONE',  ( 1.000000000000000000, 0.000000000000000000, 0.000000000000000000 ) ) ;
#32 = DIRECTION ( 'NONE',  ( 0.000000000000000000, 0.000000000000000000, -1.000000000000000000 ) ) ;
#33 = APPROVAL_DATE_TIME ( #68, #124 ) ;
#34 = DIRECTION ( 'NONE',  ( 0.000000000000000000, 0.000000000000000000, 1.000000000000000000 ) ) ;
#35 = CALENDAR_DATE ( 2021, 14, 6 ) ;
#36 = DIRECTION ( 'NONE',  ( 1.000000000000000000, 0.000000000000000000, 0.000000000000000000 ) ) ;
#37 = APPROVAL_ROLE ( '' ) ;
#38 = VECTOR ( 'NONE', #90, 1000.000000000000000 ) ;
#39 = PRODUCT_DEFINITION_FORMATION_WITH_SPECIFIED_SOURCE ( 'ANY', '', #44, .NOT_KNOWN. ) ;
#40 = CYLINDRICAL_SURFACE ( 'NONE', #78, 7.500000000000000000 ) ;
#41 = FACE_OUTER_BOUND ( 'NONE', #93, .T. ) ;
#42 = CARTESIAN_POINT ( 'NONE',  ( -1.000000000000000000, 0.000000000000000000, 0.000000000000000000 ) ) ;
#43 = CLOSED_SHELL ( 'NONE', ( #56, #175, #161, #55 ) ) ;
#44 = PRODUCT ( 'Web Model 14960_14986', 'Web Model 14960_14986', '', ( #22 ) ) ;
#45 = APPROVAL_ROLE ( '' ) ;
#46 = DIRECTION ( 'NONE',  ( 1.000000000000000000, 0.000000000000000000, 0.000000000000000000 ) ) ;
#47 = ORIENTED_EDGE ( 'NONE', *, *, #66, .F. ) ;
#48 = COORDINATED_UNIVERSAL_TIME_OFFSET ( 5, 0, .BEHIND. ) ;
#49 = PERSON_AND_ORGANIZATION_ROLE ( 'design_owner' ) ;
#50 = CARTESIAN_POINT ( 'NONE',  ( 1.000000000000000000, 0.000000000000000000, 0.000000000000000000 ) ) ;
#51 = ORIENTED_EDGE ( 'NONE', *, *, #66, .T. ) ;
#52 = DATE_AND_TIME ( #128, #159 ) ;
#53 = SHAPE_DEFINITION_REPRESENTATION ( #25, #99 ) ;
#54 = VERTEX_POINT ( 'NONE', #70 ) ;
#55 = ADVANCED_FACE ( 'NONE', ( #41 ), #88, .F. ) ;
#56 = ADVANCED_FACE ( 'NONE', ( #14 ), #40, .T. ) ;
#57 = DIRECTION ( 'NONE',  ( 1.000000000000000000, 0.000000000000000000, 0.000000000000000000 ) ) ;
#58 = CARTESIAN_POINT ( 'NONE',  ( 1.000000000000000000, 0.000000000000000000, 7.500000000000000000 ) ) ;
#59 = APPROVAL_PERSON_ORGANIZATION ( #136, #165, #45 ) ;
#60 = VERTEX_POINT ( 'NONE', #58 ) ;
#61 = CARTESIAN_POINT ( 'NONE',  ( 1.000000000000000000, 9.184850993605147944E-16, -7.500000000000000000 ) ) ;
#62 = PERSON_AND_ORGANIZATION_ROLE ( 'design_supplier' ) ;
#63 =( NAMED_UNIT ( * ) SI_UNIT ( $, .STERADIAN. ) SOLID_ANGLE_UNIT ( ) );
#64 = DATE_TIME_ROLE ( 'creation_date' ) ;
#65 = CALENDAR_DATE ( 2021, 14, 6 ) ;
#66 = EDGE_CURVE ( 'NONE', #98, #54, #10, .T. ) ;
#67 = LOCAL_TIME ( 11, 12, 43.00000000000000000, #109 ) ;
#68 = DATE_AND_TIME ( #137, #67 ) ;
#69 = EDGE_CURVE ( 'NONE', #54, #98, #130, .T. ) ;
#70 = CARTESIAN_POINT ( 'NONE',  ( -1.000000000000000000, 0.000000000000000000, 7.500000000000000000 ) ) ;
#71 = APPROVAL_DATE_TIME ( #103, #165 ) ;
#72 = AXIS2_PLACEMENT_3D ( 'NONE', #132, #106, #36 ) ;
#73 =( GEOMETRIC_REPRESENTATION_CONTEXT ( 3 ) GLOBAL_UNCERTAINTY_ASSIGNED_CONTEXT ( ( #17 ) ) GLOBAL_UNIT_ASSIGNED_CONTEXT ( ( #104, #20, #63 ) ) REPRESENTATION_CONTEXT ( 'NONE', 'WORKASPACE' ) );
#74 = ORIENTED_EDGE ( 'NONE', *, *, #100, .T. ) ;
#75 = DIRECTION ( 'NONE',  ( -1.000000000000000000, -0.000000000000000000, -0.000000000000000000 ) ) ;
#76 = DIRECTION ( 'NONE',  ( 0.000000000000000000, 0.000000000000000000, -1.000000000000000000 ) ) ;
#77 = APPROVAL_ROLE ( '' ) ;
#78 = AXIS2_PLACEMENT_3D ( 'NONE', #28, #86, #141 ) ;
#79 = LINE ( 'NONE', #171, #6 ) ;
#80 = ORIENTED_EDGE ( 'NONE', *, *, #82, .F. ) ;
#81 = MANIFOLD_SOLID_BREP ( 'Boss-Extrude1', #43 ) ;
#82 = EDGE_CURVE ( 'NONE', #108, #60, #172, .T. ) ;
#83 = ORIENTED_EDGE ( 'NONE', *, *, #94, .F. ) ;
#84 = AXIS2_PLACEMENT_3D ( 'NONE', #169, #46, #134 ) ;
#85 = CIRCLE ( 'NONE', #112, 7.500000000000000000 ) ;
#86 = DIRECTION ( 'NONE',  ( -1.000000000000000000, -0.000000000000000000, -0.000000000000000000 ) ) ;
#87 = APPROVAL_PERSON_ORGANIZATION ( #125, #124, #77 ) ;
#88 = PLANE ( 'NONE',  #162 ) ;
#89 = CC_DESIGN_PERSON_AND_ORGANIZATION_ASSIGNMENT ( #148, #49, ( #44 ) ) ;
#90 = DIRECTION ( 'NONE',  ( -1.000000000000000000, -0.000000000000000000, -0.000000000000000000 ) ) ;
#91 = DIRECTION ( 'NONE',  ( 0.000000000000000000, 0.000000000000000000, -1.000000000000000000 ) ) ;
#92 = CC_DESIGN_DATE_AND_TIME_ASSIGNMENT ( #126, #64, ( #133 ) ) ;
#93 = EDGE_LOOP ( 'NONE', ( #158, #47 ) ) ;
#94 = EDGE_CURVE ( 'NONE', #108, #98, #115, .T. ) ;
#95 = CC_DESIGN_PERSON_AND_ORGANIZATION_ASSIGNMENT ( #147, #116, ( #24 ) ) ;
#96 = ORGANIZATION ( 'UNSPECIFIED', 'UNSPECIFIED', '' ) ;
#97 = CC_DESIGN_PERSON_AND_ORGANIZATION_ASSIGNMENT ( #167, #62, ( #39 ) ) ;
#98 = VERTEX_POINT ( 'NONE', #3 ) ;
#99 = ADVANCED_BREP_SHAPE_REPRESENTATION ( 'Web Model 14960_14986', ( #81, #72 ), #73 ) ;
#100 = EDGE_CURVE ( 'NONE', #60, #54, #79, .T. ) ;
#101 = DIRECTION ( 'NONE',  ( 0.000000000000000000, 0.000000000000000000, -1.000000000000000000 ) ) ;
#102 = AXIS2_PLACEMENT_3D ( 'NONE', #135, #9, #32 ) ;
#103 = DATE_AND_TIME ( #35, #173 ) ;
#104 =( LENGTH_UNIT ( ) NAMED_UNIT ( * ) SI_UNIT ( .MILLI., .METRE. ) );
#105 = APPLICATION_PROTOCOL_DEFINITION ( 'international standard', 'config_control_design', 1994, #157 ) ;
#106 = DIRECTION ( 'NONE',  ( 0.000000000000000000, 0.000000000000000000, 1.000000000000000000 ) ) ;
#107 = CC_DESIGN_APPROVAL ( #4, ( #24 ) ) ;
#108 = VERTEX_POINT ( 'NONE', #61 ) ;
#109 = COORDINATED_UNIVERSAL_TIME_OFFSET ( 5, 0, .BEHIND. ) ;
#110 = CC_DESIGN_APPROVAL ( #165, ( #39 ) ) ;
#111 = FACE_OUTER_BOUND ( 'NONE', #150, .T. ) ;
#112 = AXIS2_PLACEMENT_3D ( 'NONE', #50, #31, #76 ) ;
#113 = CC_DESIGN_PERSON_AND_ORGANIZATION_ASSIGNMENT ( #151, #7, ( #133 ) ) ;
#114 = PERSON_AND_ORGANIZATION ( #164, #96 ) ;
#115 = LINE ( 'NONE', #144, #38 ) ;
#116 = PERSON_AND_ORGANIZATION_ROLE ( 'classification_officer' ) ;
#117 = APPROVAL_STATUS ( 'not_yet_approved' ) ;
#118 = APPLICATION_CONTEXT ( 'configuration controlled 3d designs of mechanical parts and assemblies' ) ;
#119 = CC_DESIGN_PERSON_AND_ORGANIZATION_ASSIGNMENT ( #27, #156, ( #39 ) ) ;
#120 = CARTESIAN_POINT ( 'NONE',  ( -1.000000000000000000, 0.000000000000000000, 0.000000000000000000 ) ) ;
#121 = DESIGN_CONTEXT ( 'detailed design', #118, 'design' ) ;
#122 = ORIENTED_EDGE ( 'NONE', *, *, #82, .T. ) ;
#123 = COORDINATED_UNIVERSAL_TIME_OFFSET ( 5, 0, .BEHIND. ) ;
#124 = APPROVAL ( #117, 'UNSPECIFIED' ) ;
#125 = PERSON_AND_ORGANIZATION ( #164, #96 ) ;
#126 = DATE_AND_TIME ( #163, #29 ) ;
#127 = EDGE_LOOP ( 'NONE', ( #83, #152, #74, #166 ) ) ;
#128 = CALENDAR_DATE ( 2021, 14, 6 ) ;
#129 = PRODUCT_RELATED_PRODUCT_CATEGORY ( 'detail', '', ( #44 ) ) ;
#130 = CIRCLE ( 'NONE', #139, 7.500000000000000000 ) ;
#131 = DATE_TIME_ROLE ( 'classification_date' ) ;
#132 = CARTESIAN_POINT ( 'NONE',  ( 0.000000000000000000, 0.000000000000000000, 0.000000000000000000 ) ) ;
#133 = PRODUCT_DEFINITION ( 'UNKNOWN', '', #39, #121 ) ;
#134 = DIRECTION ( 'NONE',  ( 0.000000000000000000, 0.000000000000000000, -1.000000000000000000 ) ) ;
#135 = CARTESIAN_POINT ( 'NONE',  ( 1.000000000000000000, 0.000000000000000000, 0.000000000000000000 ) ) ;
#136 = PERSON_AND_ORGANIZATION ( #164, #96 ) ;
#137 = CALENDAR_DATE ( 2021, 14, 6 ) ;
#138 = FACE_OUTER_BOUND ( 'NONE', #127, .T. ) ;
#139 = AXIS2_PLACEMENT_3D ( 'NONE', #120, #30, #91 ) ;
#140 = COORDINATED_UNIVERSAL_TIME_OFFSET ( 5, 0, .BEHIND. ) ;
#141 = DIRECTION ( 'NONE',  ( 0.000000000000000000, 0.000000000000000000, 1.000000000000000000 ) ) ;
#142 = APPROVAL_STATUS ( 'not_yet_approved' ) ;
#143 = APPROVAL_STATUS ( 'not_yet_approved' ) ;
#144 = CARTESIAN_POINT ( 'NONE',  ( 1.000000000000000000, 9.184850993605147944E-16, -7.500000000000000000 ) ) ;
#145 = ORIENTED_EDGE ( 'NONE', *, *, #94, .T. ) ;
#146 = APPLICATION_PROTOCOL_DEFINITION ( 'international standard', 'config_control_design', 1994, #118 ) ;
#147 = PERSON_AND_ORGANIZATION ( #164, #96 ) ;
#148 = PERSON_AND_ORGANIZATION ( #164, #96 ) ;
#149 = ORIENTED_EDGE ( 'NONE', *, *, #100, .F. ) ;
#150 = EDGE_LOOP ( 'NONE', ( #160, #122 ) ) ;
#151 = PERSON_AND_ORGANIZATION ( #164, #96 ) ;
#152 = ORIENTED_EDGE ( 'NONE', *, *, #153, .F. ) ;
#153 = EDGE_CURVE ( 'NONE', #60, #108, #85, .T. ) ;
#154 = DIRECTION ( 'NONE',  ( -1.000000000000000000, -0.000000000000000000, -0.000000000000000000 ) ) ;
#155 = CC_DESIGN_DATE_AND_TIME_ASSIGNMENT ( #52, #131, ( #24 ) ) ;
#156 = PERSON_AND_ORGANIZATION_ROLE ( 'creator' ) ;
#157 = APPLICATION_CONTEXT ( 'configuration controlled 3d designs of mechanical parts and assemblies' ) ;
#158 = ORIENTED_EDGE ( 'NONE', *, *, #69, .F. ) ;
#159 = LOCAL_TIME ( 11, 12, 43.00000000000000000, #21 ) ;
#160 = ORIENTED_EDGE ( 'NONE', *, *, #153, .T. ) ;
#161 = ADVANCED_FACE ( 'NONE', ( #111 ), #168, .T. ) ;
#162 = AXIS2_PLACEMENT_3D ( 'NONE', #5, #57, #101 ) ;
#163 = CALENDAR_DATE ( 2021, 14, 6 ) ;
#164 = PERSON ( 'UNSPECIFIED', 'UNSPECIFIED', 'UNSPECIFIED', ('UNSPECIFIED'), ('UNSPECIFIED'), ('UNSPECIFIED') ) ;
#165 = APPROVAL ( #143, 'UNSPECIFIED' ) ;
#166 = ORIENTED_EDGE ( 'NONE', *, *, #69, .T. ) ;
#167 = PERSON_AND_ORGANIZATION ( #164, #96 ) ;
#168 = PLANE ( 'NONE',  #84 ) ;
#169 = CARTESIAN_POINT ( 'NONE',  ( 1.000000000000000000, 0.000000000000000000, 0.000000000000000000 ) ) ;
#170 = SECURITY_CLASSIFICATION_LEVEL ( 'unclassified' ) ;
#171 = CARTESIAN_POINT ( 'NONE',  ( 1.000000000000000000, 0.000000000000000000, 7.500000000000000000 ) ) ;
#172 = CIRCLE ( 'NONE', #102, 7.500000000000000000 ) ;
#173 = LOCAL_TIME ( 11, 12, 43.00000000000000000, #123 ) ;
#174 = AXIS2_PLACEMENT_3D ( 'NONE', #8, #75, #34 ) ;
#175 = ADVANCED_FACE ( 'NONE', ( #138 ), #13, .T. ) ;
ENDSEC;
END-ISO-10303-21;
