ISO-10303-21;
HEADER;
FILE_DESCRIPTION (( 'STEP AP203' ),
    '1' );
FILE_NAME ('Web Model 14961_14974.step',
    '2020-07-27T18:37:11',
    ( '' ),
    ( '' ),
    'SwSTEP 2.0',
    'SolidWorks 2018',
    '' );
FILE_SCHEMA (( 'CONFIG_CONTROL_DESIGN' ));
ENDSEC;

DATA;
#1 = DIRECTION ( 'NONE',  ( 1.000000000000000000, 0.0000000000000000000, 0.0000000000000000000 ) ) ;
#2 = ORIENTED_EDGE ( 'NONE', *, *, #41, .T. ) ;
#3 = DIRECTION ( 'NONE',  ( -1.000000000000000000, -0.0000000000000000000, -0.0000000000000000000 ) ) ;
#4 = CC_DESIGN_PERSON_AND_ORGANIZATION_ASSIGNMENT ( #175, #56, ( #63 ) ) ;
#5 = EDGE_CURVE ( 'NONE', #120, #83, #51, .T. ) ;
#6 = LOCAL_TIME ( 14, 37, 11.00000000000000000, #68 ) ;
#7 = MECHANICAL_CONTEXT ( 'NONE', #73, 'mechanical' ) ;
#8 = APPLICATION_CONTEXT ( 'configuration controlled 3d designs of mechanical parts and assemblies' ) ;
#9 = FACE_OUTER_BOUND ( 'NONE', #126, .T. ) ;
#10 = ORGANIZATION ( 'UNSPECIFIED', 'UNSPECIFIED', '' ) ;
#11 = CARTESIAN_POINT ( 'NONE',  ( -1.000000000000000000, 1.224646799147353256E-15, -10.00000000000000000 ) ) ;
#12 = DATE_AND_TIME ( #66, #6 ) ;
#13 = DATE_AND_TIME ( #128, #16 ) ;
#14 = CALENDAR_DATE ( 2020, 27, 7 ) ;
#15 = DIRECTION ( 'NONE',  ( 1.000000000000000000, 0.0000000000000000000, 0.0000000000000000000 ) ) ;
#16 = LOCAL_TIME ( 14, 37, 11.00000000000000000, #112 ) ;
#17 = ORIENTED_EDGE ( 'NONE', *, *, #171, .F. ) ;
#18 = APPROVAL_PERSON_ORGANIZATION ( #38, #89, #145 ) ;
#19 = CIRCLE ( 'NONE', #65, 10.00000000000000000 ) ;
#20 = CC_DESIGN_APPROVAL ( #89, ( #63 ) ) ;
#21 = CARTESIAN_POINT ( 'NONE',  ( 1.000000000000000000, 0.0000000000000000000, 0.0000000000000000000 ) ) ;
#22 = ORIENTED_EDGE ( 'NONE', *, *, #114, .F. ) ;
#23 = SECURITY_CLASSIFICATION_LEVEL ( 'unclassified' ) ;
#24 = DIRECTION ( 'NONE',  ( 1.000000000000000000, 0.0000000000000000000, 0.0000000000000000000 ) ) ;
#25 = PERSON_AND_ORGANIZATION_ROLE ( 'classification_officer' ) ;
#26 = DIRECTION ( 'NONE',  ( 0.0000000000000000000, 0.0000000000000000000, -1.000000000000000000 ) ) ;
#27 = SHAPE_DEFINITION_REPRESENTATION ( #134, #153 ) ;
#28 = AXIS2_PLACEMENT_3D ( 'NONE', #21, #162, #159 ) ;
#29 = PERSON_AND_ORGANIZATION ( #81, #10 ) ;
#30 = CALENDAR_DATE ( 2020, 27, 7 ) ;
#31 = CARTESIAN_POINT ( 'NONE',  ( 1.000000000000000000, 1.224646799147353256E-15, -10.00000000000000000 ) ) ;
#32 = ORIENTED_EDGE ( 'NONE', *, *, #41, .F. ) ;
#33 = APPROVAL ( #104, 'UNSPECIFIED' ) ;
#34 = DIRECTION ( 'NONE',  ( -1.000000000000000000, -0.0000000000000000000, -0.0000000000000000000 ) ) ;
#35 = ADVANCED_FACE ( 'NONE', ( #9 ), #45, .F. ) ;
#36 = PERSON_AND_ORGANIZATION ( #81, #10 ) ;
#37 = CARTESIAN_POINT ( 'NONE',  ( 1.000000000000000000, 0.0000000000000000000, 0.0000000000000000000 ) ) ;
#38 = PERSON_AND_ORGANIZATION ( #81, #10 ) ;
#39 = LINE ( 'NONE', #142, #154 ) ;
#40 = PERSON_AND_ORGANIZATION ( #81, #10 ) ;
#41 = EDGE_CURVE ( 'NONE', #106, #83, #19, .T. ) ;
#42 = ADVANCED_FACE ( 'NONE', ( #123 ), #46, .T. ) ;
#43 = CLOSED_SHELL ( 'NONE', ( #42, #158, #144, #35 ) ) ;
#44 = DIRECTION ( 'NONE',  ( 1.000000000000000000, 0.0000000000000000000, 0.0000000000000000000 ) ) ;
#45 = PLANE ( 'NONE',  #74 ) ;
#46 = CYLINDRICAL_SURFACE ( 'NONE', #28, 10.00000000000000000 ) ;
#47 = CARTESIAN_POINT ( 'NONE',  ( 0.0000000000000000000, 0.0000000000000000000, 0.0000000000000000000 ) ) ;
#48 = APPROVAL_DATE_TIME ( #119, #33 ) ;
#49 = EDGE_LOOP ( 'NONE', ( #22, #125, #172, #54 ) ) ;
#50 = EDGE_CURVE ( 'NONE', #83, #106, #53, .T. ) ;
#51 = LINE ( 'NONE', #31, #161 ) ;
#52 = CIRCLE ( 'NONE', #151, 10.00000000000000000 ) ;
#53 = CIRCLE ( 'NONE', #124, 10.00000000000000000 ) ;
#54 = ORIENTED_EDGE ( 'NONE', *, *, #107, .F. ) ;
#55 = CARTESIAN_POINT ( 'NONE',  ( 1.000000000000000000, 0.0000000000000000000, 10.00000000000000000 ) ) ;
#56 = PERSON_AND_ORGANIZATION_ROLE ( 'creator' ) ;
#57 = APPROVAL_ROLE ( '' ) ;
#58 = PERSON_AND_ORGANIZATION_ROLE ( 'design_owner' ) ;
#59 = DIRECTION ( 'NONE',  ( 0.0000000000000000000, 0.0000000000000000000, 1.000000000000000000 ) ) ;
#60 = AXIS2_PLACEMENT_3D ( 'NONE', #100, #24, #167 ) ;
#61 =( LENGTH_UNIT ( ) NAMED_UNIT ( * ) SI_UNIT ( .MILLI., .METRE. ) );
#62 = APPROVAL_DATE_TIME ( #13, #89 ) ;
#63 = PRODUCT_DEFINITION_FORMATION_WITH_SPECIFIED_SOURCE ( 'ANY', '', #111, .NOT_KNOWN. ) ;
#64 = PERSON_AND_ORGANIZATION ( #81, #10 ) ;
#65 = AXIS2_PLACEMENT_3D ( 'NONE', #130, #160, #143 ) ;
#66 = CALENDAR_DATE ( 2020, 27, 7 ) ;
#67 = EDGE_LOOP ( 'NONE', ( #90, #17, #149, #2 ) ) ;
#68 = COORDINATED_UNIVERSAL_TIME_OFFSET ( 5, 0, .BEHIND. ) ;
#69 =( GEOMETRIC_REPRESENTATION_CONTEXT ( 3 ) GLOBAL_UNCERTAINTY_ASSIGNED_CONTEXT ( ( #91 ) ) GLOBAL_UNIT_ASSIGNED_CONTEXT ( ( #61, #103, #117 ) ) REPRESENTATION_CONTEXT ( 'NONE', 'WORKASPACE' ) );
#70 = DIRECTION ( 'NONE',  ( -1.000000000000000000, -0.0000000000000000000, -0.0000000000000000000 ) ) ;
#71 = DIRECTION ( 'NONE',  ( 0.0000000000000000000, 0.0000000000000000000, -1.000000000000000000 ) ) ;
#72 = PERSON_AND_ORGANIZATION ( #81, #10 ) ;
#73 = APPLICATION_CONTEXT ( 'configuration controlled 3d designs of mechanical parts and assemblies' ) ;
#74 = AXIS2_PLACEMENT_3D ( 'NONE', #157, #44, #129 ) ;
#75 = APPLICATION_PROTOCOL_DEFINITION ( 'international standard', 'config_control_design', 1994, #73 ) ;
#76 = APPROVAL_PERSON_ORGANIZATION ( #64, #127, #57 ) ;
#77 = DESIGN_CONTEXT ( 'detailed design', #8, 'design' ) ;
#78 = COORDINATED_UNIVERSAL_TIME_OFFSET ( 5, 0, .BEHIND. ) ;
#79 = AXIS2_PLACEMENT_3D ( 'NONE', #148, #34, #86 ) ;
#80 = ORIENTED_EDGE ( 'NONE', *, *, #171, .T. ) ;
#81 = PERSON ( 'UNSPECIFIED', 'UNSPECIFIED', 'UNSPECIFIED', ('UNSPECIFIED'), ('UNSPECIFIED'), ('UNSPECIFIED') ) ;
#82 = CARTESIAN_POINT ( 'NONE',  ( -1.000000000000000000, 0.0000000000000000000, 0.0000000000000000000 ) ) ;
#83 = VERTEX_POINT ( 'NONE', #11 ) ;
#84 = APPROVAL_STATUS ( 'not_yet_approved' ) ;
#85 = SECURITY_CLASSIFICATION ( '', '', #23 ) ;
#86 = DIRECTION ( 'NONE',  ( 0.0000000000000000000, 0.0000000000000000000, 1.000000000000000000 ) ) ;
#87 = APPLICATION_PROTOCOL_DEFINITION ( 'international standard', 'config_control_design', 1994, #8 ) ;
#88 = CARTESIAN_POINT ( 'NONE',  ( 1.000000000000000000, 0.0000000000000000000, 0.0000000000000000000 ) ) ;
#89 = APPROVAL ( #84, 'UNSPECIFIED' ) ;
#90 = ORIENTED_EDGE ( 'NONE', *, *, #5, .F. ) ;
#91 = UNCERTAINTY_MEASURE_WITH_UNIT (LENGTH_MEASURE( 1.000000000000000082E-05 ), #61, 'distance_accuracy_value', 'NONE');
#92 = DATE_AND_TIME ( #14, #150 ) ;
#93 = CC_DESIGN_APPROVAL ( #33, ( #174 ) ) ;
#94 = PRODUCT_RELATED_PRODUCT_CATEGORY ( 'detail', '', ( #111 ) ) ;
#95 = FACE_OUTER_BOUND ( 'NONE', #67, .T. ) ;
#96 = CC_DESIGN_DATE_AND_TIME_ASSIGNMENT ( #92, #121, ( #174 ) ) ;
#97 = APPROVAL_DATE_TIME ( #12, #127 ) ;
#98 = AXIS2_PLACEMENT_3D ( 'NONE', #47, #59, #163 ) ;
#99 = MANIFOLD_SOLID_BREP ( 'Boss-Extrude1', #43 ) ;
#100 = CARTESIAN_POINT ( 'NONE',  ( 1.000000000000000000, 0.0000000000000000000, 0.0000000000000000000 ) ) ;
#101 = CARTESIAN_POINT ( 'NONE',  ( 1.000000000000000000, 1.224646799147353256E-15, -10.00000000000000000 ) ) ;
#102 = DATE_AND_TIME ( #30, #139 ) ;
#103 =( NAMED_UNIT ( * ) PLANE_ANGLE_UNIT ( ) SI_UNIT ( $, .RADIAN. ) );
#104 = APPROVAL_STATUS ( 'not_yet_approved' ) ;
#105 = COORDINATED_UNIVERSAL_TIME_OFFSET ( 5, 0, .BEHIND. ) ;
#106 = VERTEX_POINT ( 'NONE', #131 ) ;
#107 = EDGE_CURVE ( 'NONE', #141, #106, #39, .T. ) ;
#108 = CALENDAR_DATE ( 2020, 27, 7 ) ;
#109 = CYLINDRICAL_SURFACE ( 'NONE', #79, 10.00000000000000000 ) ;
#110 = CC_DESIGN_PERSON_AND_ORGANIZATION_ASSIGNMENT ( #40, #25, ( #85 ) ) ;
#111 = PRODUCT ( 'Web Model 14961_14974', 'Web Model 14961_14974', '', ( #7 ) ) ;
#112 = COORDINATED_UNIVERSAL_TIME_OFFSET ( 5, 0, .BEHIND. ) ;
#113 = APPROVAL_ROLE ( '' ) ;
#114 = EDGE_CURVE ( 'NONE', #120, #141, #52, .T. ) ;
#115 = CC_DESIGN_PERSON_AND_ORGANIZATION_ASSIGNMENT ( #140, #58, ( #111 ) ) ;
#116 = DATE_TIME_ROLE ( 'classification_date' ) ;
#117 =( NAMED_UNIT ( * ) SI_UNIT ( $, .STERADIAN. ) SOLID_ANGLE_UNIT ( ) );
#118 = APPROVAL_STATUS ( 'not_yet_approved' ) ;
#119 = DATE_AND_TIME ( #108, #146 ) ;
#120 = VERTEX_POINT ( 'NONE', #101 ) ;
#121 = DATE_TIME_ROLE ( 'creation_date' ) ;
#122 = AXIS2_PLACEMENT_3D ( 'NONE', #37, #166, #26 ) ;
#123 = FACE_OUTER_BOUND ( 'NONE', #49, .T. ) ;
#124 = AXIS2_PLACEMENT_3D ( 'NONE', #82, #1, #71 ) ;
#125 = ORIENTED_EDGE ( 'NONE', *, *, #5, .T. ) ;
#126 = EDGE_LOOP ( 'NONE', ( #32, #168 ) ) ;
#127 = APPROVAL ( #118, 'UNSPECIFIED' ) ;
#128 = CALENDAR_DATE ( 2020, 27, 7 ) ;
#129 = DIRECTION ( 'NONE',  ( 0.0000000000000000000, 0.0000000000000000000, -1.000000000000000000 ) ) ;
#130 = CARTESIAN_POINT ( 'NONE',  ( -1.000000000000000000, 0.0000000000000000000, 0.0000000000000000000 ) ) ;
#131 = CARTESIAN_POINT ( 'NONE',  ( -1.000000000000000000, 0.0000000000000000000, 10.00000000000000000 ) ) ;
#132 = FACE_OUTER_BOUND ( 'NONE', #170, .T. ) ;
#133 = CC_DESIGN_APPROVAL ( #127, ( #85 ) ) ;
#134 = PRODUCT_DEFINITION_SHAPE ( 'NONE', 'NONE',  #174 ) ;
#135 = PERSON_AND_ORGANIZATION_ROLE ( 'design_supplier' ) ;
#136 = DIRECTION ( 'NONE',  ( 0.0000000000000000000, 0.0000000000000000000, -1.000000000000000000 ) ) ;
#137 = PLANE ( 'NONE',  #122 ) ;
#138 = CC_DESIGN_SECURITY_CLASSIFICATION ( #85, ( #63 ) ) ;
#139 = LOCAL_TIME ( 14, 37, 11.00000000000000000, #152 ) ;
#140 = PERSON_AND_ORGANIZATION ( #81, #10 ) ;
#141 = VERTEX_POINT ( 'NONE', #55 ) ;
#142 = CARTESIAN_POINT ( 'NONE',  ( 1.000000000000000000, 0.0000000000000000000, 10.00000000000000000 ) ) ;
#143 = DIRECTION ( 'NONE',  ( 0.0000000000000000000, 0.0000000000000000000, -1.000000000000000000 ) ) ;
#144 = ADVANCED_FACE ( 'NONE', ( #132 ), #137, .T. ) ;
#145 = APPROVAL_ROLE ( '' ) ;
#146 = LOCAL_TIME ( 14, 37, 11.00000000000000000, #105 ) ;
#147 = PERSON_AND_ORGANIZATION_ROLE ( 'creator' ) ;
#148 = CARTESIAN_POINT ( 'NONE',  ( 1.000000000000000000, 0.0000000000000000000, 0.0000000000000000000 ) ) ;
#149 = ORIENTED_EDGE ( 'NONE', *, *, #107, .T. ) ;
#150 = LOCAL_TIME ( 14, 37, 11.00000000000000000, #78 ) ;
#151 = AXIS2_PLACEMENT_3D ( 'NONE', #88, #15, #136 ) ;
#152 = COORDINATED_UNIVERSAL_TIME_OFFSET ( 5, 0, .BEHIND. ) ;
#153 = ADVANCED_BREP_SHAPE_REPRESENTATION ( 'Web Model 14961_14974', ( #99, #98 ), #69 ) ;
#154 = VECTOR ( 'NONE', #3, 1000.000000000000000 ) ;
#155 = CC_DESIGN_DATE_AND_TIME_ASSIGNMENT ( #102, #116, ( #85 ) ) ;
#156 = CC_DESIGN_PERSON_AND_ORGANIZATION_ASSIGNMENT ( #36, #135, ( #63 ) ) ;
#157 = CARTESIAN_POINT ( 'NONE',  ( -1.000000000000000000, 0.0000000000000000000, 0.0000000000000000000 ) ) ;
#158 = ADVANCED_FACE ( 'NONE', ( #95 ), #109, .T. ) ;
#159 = DIRECTION ( 'NONE',  ( 0.0000000000000000000, 0.0000000000000000000, 1.000000000000000000 ) ) ;
#160 = DIRECTION ( 'NONE',  ( 1.000000000000000000, 0.0000000000000000000, 0.0000000000000000000 ) ) ;
#161 = VECTOR ( 'NONE', #70, 1000.000000000000000 ) ;
#162 = DIRECTION ( 'NONE',  ( -1.000000000000000000, -0.0000000000000000000, -0.0000000000000000000 ) ) ;
#163 = DIRECTION ( 'NONE',  ( 1.000000000000000000, 0.0000000000000000000, 0.0000000000000000000 ) ) ;
#164 = APPROVAL_PERSON_ORGANIZATION ( #72, #33, #113 ) ;
#165 = CIRCLE ( 'NONE', #60, 10.00000000000000000 ) ;
#166 = DIRECTION ( 'NONE',  ( 1.000000000000000000, 0.0000000000000000000, 0.0000000000000000000 ) ) ;
#167 = DIRECTION ( 'NONE',  ( 0.0000000000000000000, 0.0000000000000000000, -1.000000000000000000 ) ) ;
#168 = ORIENTED_EDGE ( 'NONE', *, *, #50, .F. ) ;
#169 = CC_DESIGN_PERSON_AND_ORGANIZATION_ASSIGNMENT ( #29, #147, ( #174 ) ) ;
#170 = EDGE_LOOP ( 'NONE', ( #80, #173 ) ) ;
#171 = EDGE_CURVE ( 'NONE', #141, #120, #165, .T. ) ;
#172 = ORIENTED_EDGE ( 'NONE', *, *, #50, .T. ) ;
#173 = ORIENTED_EDGE ( 'NONE', *, *, #114, .T. ) ;
#174 = PRODUCT_DEFINITION ( 'UNKNOWN', '', #63, #77 ) ;
#175 = PERSON_AND_ORGANIZATION ( #81, #10 ) ;
ENDSEC;
END-ISO-10303-21;
