ISO-10303-21;
HEADER;
FILE_DESCRIPTION (( 'STEP AP203' ),
    '1' );
FILE_NAME ('Web Model 36991_13294.step',
    '2020-11-03T22:12:54',
    ( '' ),
    ( '' ),
    'SwSTEP 2.0',
    'SolidWorks 2018',
    '' );
FILE_SCHEMA (( 'CONFIG_CONTROL_DESIGN' ));
ENDSEC;

DATA;
#1 = CC_DESIGN_APPROVAL ( #48, ( #61 ) ) ;
#2 = DIRECTION ( 'NONE',  ( -0.0000000000000000000, -0.0000000000000000000, -1.000000000000000000 ) ) ;
#3 = PERSON_AND_ORGANIZATION ( #12, #27 ) ;
#4 = ORIENTED_EDGE ( 'NONE', *, *, #9, .F. ) ;
#5 = SECURITY_CLASSIFICATION_LEVEL ( 'unclassified' ) ;
#6 = PRODUCT_DEFINITION_SHAPE ( 'NONE', 'NONE',  #73 ) ;
#7 = DIRECTION ( 'NONE',  ( -1.000000000000000000, 0.0000000000000000000, 0.0000000000000000000 ) ) ;
#8 = CC_DESIGN_PERSON_AND_ORGANIZATION_ASSIGNMENT ( #37, #34, ( #73 ) ) ;
#9 = EDGE_CURVE ( 'NONE', #102, #25, #22, .T. ) ;
#10 = CALENDAR_DATE ( 2020, 3, 11 ) ;
#11 = ORIENTED_EDGE ( 'NONE', *, *, #174, .T. ) ;
#12 = PERSON ( 'UNSPECIFIED', 'UNSPECIFIED', 'UNSPECIFIED', ('UNSPECIFIED'), ('UNSPECIFIED'), ('UNSPECIFIED') ) ;
#13 = EDGE_LOOP ( 'NONE', ( #95, #23, #66, #17 ) ) ;
#14 = CC_DESIGN_PERSON_AND_ORGANIZATION_ASSIGNMENT ( #96, #168, ( #61 ) ) ;
#15 = SECURITY_CLASSIFICATION ( '', '', #5 ) ;
#16 = LOCAL_TIME ( 17, 12, 54.00000000000000000, #75 ) ;
#17 = ORIENTED_EDGE ( 'NONE', *, *, #107, .T. ) ;
#18 = AXIS2_PLACEMENT_3D ( 'NONE', #63, #113, #125 ) ;
#19 = APPLICATION_PROTOCOL_DEFINITION ( 'international standard', 'config_control_design', 1994, #103 ) ;
#20 = ADVANCED_FACE ( 'NONE', ( #90 ), #151, .F. ) ;
#21 = CARTESIAN_POINT ( 'NONE',  ( 0.0000000000000000000, 0.0000000000000000000, -0.5000000000000000000 ) ) ;
#22 = CIRCLE ( 'NONE', #18, 12.50000000000000000 ) ;
#23 = ORIENTED_EDGE ( 'NONE', *, *, #148, .F. ) ;
#24 = CALENDAR_DATE ( 2020, 3, 11 ) ;
#25 = VERTEX_POINT ( 'NONE', #60 ) ;
#26 = AXIS2_PLACEMENT_3D ( 'NONE', #156, #67, #116 ) ;
#27 = ORGANIZATION ( 'UNSPECIFIED', 'UNSPECIFIED', '' ) ;
#28 = CC_DESIGN_DATE_AND_TIME_ASSIGNMENT ( #114, #35, ( #15 ) ) ;
#29 = FACE_OUTER_BOUND ( 'NONE', #13, .T. ) ;
#30 = EDGE_LOOP ( 'NONE', ( #46, #143 ) ) ;
#31 = DIRECTION ( 'NONE',  ( -0.0000000000000000000, -0.0000000000000000000, -1.000000000000000000 ) ) ;
#32 = CC_DESIGN_PERSON_AND_ORGANIZATION_ASSIGNMENT ( #53, #170, ( #158 ) ) ;
#33 = LOCAL_TIME ( 17, 12, 54.00000000000000000, #97 ) ;
#34 = PERSON_AND_ORGANIZATION_ROLE ( 'creator' ) ;
#35 = DATE_TIME_ROLE ( 'classification_date' ) ;
#36 = CC_DESIGN_DATE_AND_TIME_ASSIGNMENT ( #162, #68, ( #73 ) ) ;
#37 = PERSON_AND_ORGANIZATION ( #12, #27 ) ;
#38 = PRODUCT_RELATED_PRODUCT_CATEGORY ( 'detail', '', ( #158 ) ) ;
#39 = LOCAL_TIME ( 17, 12, 54.00000000000000000, #40 ) ;
#40 = COORDINATED_UNIVERSAL_TIME_OFFSET ( 5, 0, .BEHIND. ) ;
#41 = ORIENTED_EDGE ( 'NONE', *, *, #107, .F. ) ;
#42 = CC_DESIGN_SECURITY_CLASSIFICATION ( #15, ( #61 ) ) ;
#43 = DIRECTION ( 'NONE',  ( 1.000000000000000000, 0.0000000000000000000, -0.0000000000000000000 ) ) ;
#44 = CARTESIAN_POINT ( 'NONE',  ( 12.50000000000000000, 1.530808498934191521E-15, -0.5000000000000000000 ) ) ;
#45 = CARTESIAN_POINT ( 'NONE',  ( -12.50000000000000000, 0.0000000000000000000, -0.5000000000000000000 ) ) ;
#46 = ORIENTED_EDGE ( 'NONE', *, *, #148, .T. ) ;
#47 = APPROVAL_ROLE ( '' ) ;
#48 = APPROVAL ( #169, 'UNSPECIFIED' ) ;
#49 = DIRECTION ( 'NONE',  ( 1.000000000000000000, 0.0000000000000000000, -0.0000000000000000000 ) ) ;
#50 = PLANE ( 'NONE',  #136 ) ;
#51 = AXIS2_PLACEMENT_3D ( 'NONE', #138, #164, #59 ) ;
#52 = CIRCLE ( 'NONE', #94, 12.50000000000000000 ) ;
#53 = PERSON_AND_ORGANIZATION ( #12, #27 ) ;
#54 = VERTEX_POINT ( 'NONE', #45 ) ;
#55 = AXIS2_PLACEMENT_3D ( 'NONE', #123, #89, #43 ) ;
#56 = VECTOR ( 'NONE', #78, 1000.000000000000000 ) ;
#57 = CLOSED_SHELL ( 'NONE', ( #139, #92, #153, #20 ) ) ;
#58 = UNCERTAINTY_MEASURE_WITH_UNIT (LENGTH_MEASURE( 1.000000000000000082E-05 ), #91, 'distance_accuracy_value', 'NONE');
#59 = DIRECTION ( 'NONE',  ( 1.000000000000000000, 0.0000000000000000000, 0.0000000000000000000 ) ) ;
#60 = CARTESIAN_POINT ( 'NONE',  ( -12.50000000000000000, 0.0000000000000000000, 0.5000000000000000000 ) ) ;
#61 = PRODUCT_DEFINITION_FORMATION_WITH_SPECIFIED_SOURCE ( 'ANY', '', #158, .NOT_KNOWN. ) ;
#62 = LINE ( 'NONE', #149, #56 ) ;
#63 = CARTESIAN_POINT ( 'NONE',  ( 0.0000000000000000000, 0.0000000000000000000, 0.5000000000000000000 ) ) ;
#64 = ADVANCED_BREP_SHAPE_REPRESENTATION ( 'Web Model 36991_13294', ( #106, #26 ), #163 ) ;
#65 = DIRECTION ( 'NONE',  ( 1.000000000000000000, 0.0000000000000000000, 0.0000000000000000000 ) ) ;
#66 = ORIENTED_EDGE ( 'NONE', *, *, #130, .T. ) ;
#67 = DIRECTION ( 'NONE',  ( 0.0000000000000000000, 0.0000000000000000000, 1.000000000000000000 ) ) ;
#68 = DATE_TIME_ROLE ( 'creation_date' ) ;
#69 = CYLINDRICAL_SURFACE ( 'NONE', #159, 12.50000000000000000 ) ;
#70 = AXIS2_PLACEMENT_3D ( 'NONE', #21, #118, #81 ) ;
#71 = VERTEX_POINT ( 'NONE', #44 ) ;
#72 = COORDINATED_UNIVERSAL_TIME_OFFSET ( 5, 0, .BEHIND. ) ;
#73 = PRODUCT_DEFINITION ( 'UNKNOWN', '', #61, #120 ) ;
#74 = CALENDAR_DATE ( 2020, 3, 11 ) ;
#75 = COORDINATED_UNIVERSAL_TIME_OFFSET ( 5, 0, .BEHIND. ) ;
#76 = CARTESIAN_POINT ( 'NONE',  ( 0.0000000000000000000, 0.0000000000000000000, 0.5000000000000000000 ) ) ;
#77 = DIRECTION ( 'NONE',  ( -1.000000000000000000, 0.0000000000000000000, 0.0000000000000000000 ) ) ;
#78 = DIRECTION ( 'NONE',  ( -0.0000000000000000000, -0.0000000000000000000, -1.000000000000000000 ) ) ;
#79 = APPLICATION_CONTEXT ( 'configuration controlled 3d designs of mechanical parts and assemblies' ) ;
#80 = CC_DESIGN_APPROVAL ( #112, ( #73 ) ) ;
#81 = DIRECTION ( 'NONE',  ( 1.000000000000000000, 0.0000000000000000000, 0.0000000000000000000 ) ) ;
#82 = PERSON_AND_ORGANIZATION_ROLE ( 'creator' ) ;
#83 = CC_DESIGN_PERSON_AND_ORGANIZATION_ASSIGNMENT ( #142, #104, ( #15 ) ) ;
#84 = APPROVAL_PERSON_ORGANIZATION ( #172, #88, #47 ) ;
#85 = ORIENTED_EDGE ( 'NONE', *, *, #174, .F. ) ;
#86 = PERSON_AND_ORGANIZATION ( #12, #27 ) ;
#87 = EDGE_LOOP ( 'NONE', ( #41, #85 ) ) ;
#88 = APPROVAL ( #93, 'UNSPECIFIED' ) ;
#89 = DIRECTION ( 'NONE',  ( 0.0000000000000000000, 0.0000000000000000000, 1.000000000000000000 ) ) ;
#90 = FACE_OUTER_BOUND ( 'NONE', #87, .T. ) ;
#91 =( LENGTH_UNIT ( ) NAMED_UNIT ( * ) SI_UNIT ( .MILLI., .METRE. ) );
#92 = ADVANCED_FACE ( 'NONE', ( #29 ), #69, .T. ) ;
#93 = APPROVAL_STATUS ( 'not_yet_approved' ) ;
#94 = AXIS2_PLACEMENT_3D ( 'NONE', #152, #165, #65 ) ;
#95 = ORIENTED_EDGE ( 'NONE', *, *, #111, .F. ) ;
#96 = PERSON_AND_ORGANIZATION ( #12, #27 ) ;
#97 = COORDINATED_UNIVERSAL_TIME_OFFSET ( 5, 0, .BEHIND. ) ;
#98 = ORIENTED_EDGE ( 'NONE', *, *, #130, .F. ) ;
#99 = CARTESIAN_POINT ( 'NONE',  ( -12.50000000000000000, 0.0000000000000000000, 0.5000000000000000000 ) ) ;
#100 = CALENDAR_DATE ( 2020, 3, 11 ) ;
#101 = APPROVAL_DATE_TIME ( #135, #88 ) ;
#102 = VERTEX_POINT ( 'NONE', #147 ) ;
#103 = APPLICATION_CONTEXT ( 'configuration controlled 3d designs of mechanical parts and assemblies' ) ;
#104 = PERSON_AND_ORGANIZATION_ROLE ( 'classification_officer' ) ;
#105 = DIRECTION ( 'NONE',  ( -0.0000000000000000000, -0.0000000000000000000, -1.000000000000000000 ) ) ;
#106 = MANIFOLD_SOLID_BREP ( 'Boss-Extrude1', #57 ) ;
#107 = EDGE_CURVE ( 'NONE', #54, #71, #129, .T. ) ;
#108 = COORDINATED_UNIVERSAL_TIME_OFFSET ( 5, 0, .BEHIND. ) ;
#109 = FACE_OUTER_BOUND ( 'NONE', #30, .T. ) ;
#110 = CYLINDRICAL_SURFACE ( 'NONE', #133, 12.50000000000000000 ) ;
#111 = EDGE_CURVE ( 'NONE', #102, #71, #62, .T. ) ;
#112 = APPROVAL ( #155, 'UNSPECIFIED' ) ;
#113 = DIRECTION ( 'NONE',  ( 0.0000000000000000000, 0.0000000000000000000, 1.000000000000000000 ) ) ;
#114 = DATE_AND_TIME ( #10, #33 ) ;
#115 = EDGE_LOOP ( 'NONE', ( #4, #146, #11, #98 ) ) ;
#116 = DIRECTION ( 'NONE',  ( 1.000000000000000000, 0.0000000000000000000, 0.0000000000000000000 ) ) ;
#117 = CARTESIAN_POINT ( 'NONE',  ( 0.0000000000000000000, 0.0000000000000000000, 0.5000000000000000000 ) ) ;
#118 = DIRECTION ( 'NONE',  ( 0.0000000000000000000, 0.0000000000000000000, 1.000000000000000000 ) ) ;
#119 = CARTESIAN_POINT ( 'NONE',  ( 0.0000000000000000000, 0.0000000000000000000, 0.5000000000000000000 ) ) ;
#120 = DESIGN_CONTEXT ( 'detailed design', #103, 'design' ) ;
#121 = LOCAL_TIME ( 17, 12, 54.00000000000000000, #108 ) ;
#122 = APPROVAL_DATE_TIME ( #150, #112 ) ;
#123 = CARTESIAN_POINT ( 'NONE',  ( 0.0000000000000000000, 0.0000000000000000000, -0.5000000000000000000 ) ) ;
#124 = CC_DESIGN_APPROVAL ( #88, ( #15 ) ) ;
#125 = DIRECTION ( 'NONE',  ( 1.000000000000000000, 0.0000000000000000000, 0.0000000000000000000 ) ) ;
#126 = APPROVAL_DATE_TIME ( #132, #48 ) ;
#127 = MECHANICAL_CONTEXT ( 'NONE', #79, 'mechanical' ) ;
#128 = APPROVAL_ROLE ( '' ) ;
#129 = CIRCLE ( 'NONE', #51, 12.50000000000000000 ) ;
#130 = EDGE_CURVE ( 'NONE', #25, #54, #134, .T. ) ;
#131 = APPROVAL_ROLE ( '' ) ;
#132 = DATE_AND_TIME ( #24, #121 ) ;
#133 = AXIS2_PLACEMENT_3D ( 'NONE', #117, #105, #7 ) ;
#134 = LINE ( 'NONE', #99, #137 ) ;
#135 = DATE_AND_TIME ( #74, #39 ) ;
#136 = AXIS2_PLACEMENT_3D ( 'NONE', #119, #154, #49 ) ;
#137 = VECTOR ( 'NONE', #31, 1000.000000000000000 ) ;
#138 = CARTESIAN_POINT ( 'NONE',  ( 0.0000000000000000000, 0.0000000000000000000, -0.5000000000000000000 ) ) ;
#139 = ADVANCED_FACE ( 'NONE', ( #175 ), #110, .T. ) ;
#140 =( NAMED_UNIT ( * ) PLANE_ANGLE_UNIT ( ) SI_UNIT ( $, .RADIAN. ) );
#141 =( NAMED_UNIT ( * ) SI_UNIT ( $, .STERADIAN. ) SOLID_ANGLE_UNIT ( ) );
#142 = PERSON_AND_ORGANIZATION ( #12, #27 ) ;
#143 = ORIENTED_EDGE ( 'NONE', *, *, #9, .T. ) ;
#144 = CC_DESIGN_PERSON_AND_ORGANIZATION_ASSIGNMENT ( #161, #82, ( #61 ) ) ;
#145 = CALENDAR_DATE ( 2020, 3, 11 ) ;
#146 = ORIENTED_EDGE ( 'NONE', *, *, #111, .T. ) ;
#147 = CARTESIAN_POINT ( 'NONE',  ( 12.50000000000000000, 1.530808498934191521E-15, 0.5000000000000000000 ) ) ;
#148 = EDGE_CURVE ( 'NONE', #25, #102, #52, .T. ) ;
#149 = CARTESIAN_POINT ( 'NONE',  ( 12.50000000000000000, 1.530808498934191521E-15, 0.5000000000000000000 ) ) ;
#150 = DATE_AND_TIME ( #145, #16 ) ;
#151 = PLANE ( 'NONE',  #55 ) ;
#152 = CARTESIAN_POINT ( 'NONE',  ( 0.0000000000000000000, 0.0000000000000000000, 0.5000000000000000000 ) ) ;
#153 = ADVANCED_FACE ( 'NONE', ( #109 ), #50, .T. ) ;
#154 = DIRECTION ( 'NONE',  ( 0.0000000000000000000, 0.0000000000000000000, 1.000000000000000000 ) ) ;
#155 = APPROVAL_STATUS ( 'not_yet_approved' ) ;
#156 = CARTESIAN_POINT ( 'NONE',  ( 0.0000000000000000000, 0.0000000000000000000, 0.0000000000000000000 ) ) ;
#157 = APPROVAL_PERSON_ORGANIZATION ( #86, #112, #131 ) ;
#158 = PRODUCT ( 'Web Model 36991_13294', 'Web Model 36991_13294', '', ( #127 ) ) ;
#159 = AXIS2_PLACEMENT_3D ( 'NONE', #76, #2, #77 ) ;
#160 = APPROVAL_PERSON_ORGANIZATION ( #3, #48, #128 ) ;
#161 = PERSON_AND_ORGANIZATION ( #12, #27 ) ;
#162 = DATE_AND_TIME ( #100, #173 ) ;
#163 =( GEOMETRIC_REPRESENTATION_CONTEXT ( 3 ) GLOBAL_UNCERTAINTY_ASSIGNED_CONTEXT ( ( #58 ) ) GLOBAL_UNIT_ASSIGNED_CONTEXT ( ( #91, #140, #141 ) ) REPRESENTATION_CONTEXT ( 'NONE', 'WORKASPACE' ) );
#164 = DIRECTION ( 'NONE',  ( 0.0000000000000000000, 0.0000000000000000000, 1.000000000000000000 ) ) ;
#165 = DIRECTION ( 'NONE',  ( 0.0000000000000000000, 0.0000000000000000000, 1.000000000000000000 ) ) ;
#166 = SHAPE_DEFINITION_REPRESENTATION ( #6, #64 ) ;
#167 = APPLICATION_PROTOCOL_DEFINITION ( 'international standard', 'config_control_design', 1994, #79 ) ;
#168 = PERSON_AND_ORGANIZATION_ROLE ( 'design_supplier' ) ;
#169 = APPROVAL_STATUS ( 'not_yet_approved' ) ;
#170 = PERSON_AND_ORGANIZATION_ROLE ( 'design_owner' ) ;
#171 = CIRCLE ( 'NONE', #70, 12.50000000000000000 ) ;
#172 = PERSON_AND_ORGANIZATION ( #12, #27 ) ;
#173 = LOCAL_TIME ( 17, 12, 54.00000000000000000, #72 ) ;
#174 = EDGE_CURVE ( 'NONE', #71, #54, #171, .T. ) ;
#175 = FACE_OUTER_BOUND ( 'NONE', #115, .T. ) ;
ENDSEC;
END-ISO-10303-21;
