ISO-10303-21;
HEADER;
FILE_DESCRIPTION (( 'STEP AP203' ),
    '1' );
FILE_NAME ('TTN031779-E0W.STEP',
    '2014-09-16T17:31:23',
    ( 'admin' ),
    ( '' ),
    'SwSTEP 2.0',
    'SolidWorks 2014',
    '' );
FILE_SCHEMA (( 'CONFIG_CONTROL_DESIGN' ));
ENDSEC;

DATA;
#1 = PRODUCT_DEFINITION ( 'UNKNOWN', '', #81, #143 ) ;
#2 = EDGE_CURVE ( 'NONE', #198, #284, #289, .T. ) ;
#3 = ORIENTED_EDGE ( 'NONE', *, *, #196, .T. ) ;
#4 = DIRECTION ( 'NONE',  ( 1.000000000000000000, 0.0000000000000000000, 0.0000000000000000000 ) ) ;
#5 = AXIS2_PLACEMENT_3D ( 'NONE', #36, #207, #32 ) ;
#6 = APPROVAL_DATE_TIME ( #310, #221 ) ;
#7 = PLANE ( 'NONE',  #20 ) ;
#8 = APPROVAL_PERSON_ORGANIZATION ( #128, #15, #62 ) ;
#9 = ORIENTED_EDGE ( 'NONE', *, *, #196, .F. ) ;
#10 = ORIENTED_EDGE ( 'NONE', *, *, #318, .T. ) ;
#11 = DIRECTION ( 'NONE',  ( -1.000000000000000000, -0.0000000000000000000, -0.0000000000000000000 ) ) ;
#12 = AXIS2_PLACEMENT_3D ( 'NONE', #251, #148, #52 ) ;
#13 = LOCAL_TIME ( 13, 31, 23.00000000000000000, #254 ) ;
#14 = LINE ( 'NONE', #99, #250 ) ;
#15 = APPROVAL ( #113, 'UNSPECIFIED' ) ;
#16 = VERTEX_POINT ( 'NONE', #92 ) ;
#17 = ORIENTED_EDGE ( 'NONE', *, *, #93, .F. ) ;
#18 = DIMENSIONAL_EXPONENTS ( 1.000000000000000000, 0.0000000000000000000, 0.0000000000000000000, 0.0000000000000000000, 0.0000000000000000000, 0.0000000000000000000, 0.0000000000000000000 ) ;
#19 = DIRECTION ( 'NONE',  ( -1.000000000000000000, -0.0000000000000000000, -0.0000000000000000000 ) ) ;
#20 = AXIS2_PLACEMENT_3D ( 'NONE', #139, #188, #308 ) ;
#21 = DIRECTION ( 'NONE',  ( -1.000000000000000000, -0.0000000000000000000, -0.0000000000000000000 ) ) ;
#22 = CALENDAR_DATE ( 2014, 16, 9 ) ;
#23 = CIRCLE ( 'NONE', #63, 0.2423643388598488200 ) ;
#24 = ORIENTED_EDGE ( 'NONE', *, *, #264, .T. ) ;
#25 = DIRECTION ( 'NONE',  ( 0.0000000000000000000, 1.000000000000000000, 0.0000000000000000000 ) ) ;
#26 = AXIS2_PLACEMENT_3D ( 'NONE', #70, #97, #4 ) ;
#27 = PERSON_AND_ORGANIZATION_ROLE ( 'creator' ) ;
#28 = CARTESIAN_POINT ( 'NONE',  ( -0.3267716535433071200, 0.0000000000000000000, 0.0000000000000000000 ) ) ;
#29 = FACE_OUTER_BOUND ( 'NONE', #265, .T. ) ;
#30 = SHAPE_DEFINITION_REPRESENTATION ( #321, #223 ) ;
#31 = APPROVAL_STATUS ( 'not_yet_approved' ) ;
#32 = DIRECTION ( 'NONE',  ( 0.0000000000000000000, 0.0000000000000000000, -1.000000000000000000 ) ) ;
#33 = ORIENTED_EDGE ( 'NONE', *, *, #313, .T. ) ;
#34 = CC_DESIGN_APPROVAL ( #15, ( #1 ) ) ;
#35 = ORIENTED_EDGE ( 'NONE', *, *, #318, .F. ) ;
#36 = CARTESIAN_POINT ( 'NONE',  ( -0.07874015748031496000, 0.0000000000000000000, 0.0000000000000000000 ) ) ;
#37 = CARTESIAN_POINT ( 'NONE',  ( -0.01733400021464733700, 0.0000000000000000000, 0.2500000000000000000 ) ) ;
#38 = AXIS2_PLACEMENT_3D ( 'NONE', #28, #132, #303 ) ;
#39 = LINE ( 'NONE', #266, #53 ) ;
#40 = ORIENTED_EDGE ( 'NONE', *, *, #2, .T. ) ;
#41 = ORIENTED_EDGE ( 'NONE', *, *, #313, .F. ) ;
#42 = EDGE_CURVE ( 'NONE', #284, #191, #277, .T. ) ;
#43 = AXIS2_PLACEMENT_3D ( 'NONE', #222, #173, #25 ) ;
#44 = ADVANCED_FACE ( 'NONE', ( #182 ), #160, .T. ) ;
#45 = CARTESIAN_POINT ( 'NONE',  ( 0.07874015748031496000, 2.483043706932625700E-017, 0.0000000000000000000 ) ) ;
#46 = FACE_OUTER_BOUND ( 'NONE', #83, .T. ) ;
#47 = CARTESIAN_POINT ( 'NONE',  ( -0.01733400021464733700, 0.0000000000000000000, 0.0000000000000000000 ) ) ;
#48 = ORIENTED_EDGE ( 'NONE', *, *, #228, .T. ) ;
#49 = CC_DESIGN_PERSON_AND_ORGANIZATION_ASSIGNMENT ( #226, #61, ( #1 ) ) ;
#50 = PERSON_AND_ORGANIZATION ( #112, #291 ) ;
#51 = ORIENTED_EDGE ( 'NONE', *, *, #212, .F. ) ;
#52 = DIRECTION ( 'NONE',  ( 0.0000000000000000000, 0.0000000000000000000, -1.000000000000000000 ) ) ;
#53 = VECTOR ( 'NONE', #312, 39.37007874015748100 ) ;
#54 = AXIS2_PLACEMENT_3D ( 'NONE', #158, #260, #309 ) ;
#55 = ORIENTED_EDGE ( 'NONE', *, *, #311, .T. ) ;
#56 = CARTESIAN_POINT ( 'NONE',  ( -0.001657279624395049800, 0.0000000000000000000, 0.0000000000000000000 ) ) ;
#57 = DATE_AND_TIME ( #78, #319 ) ;
#58 = CARTESIAN_POINT ( 'NONE',  ( -0.001657279624395049800, 0.0000000000000000000, 0.2423643388598488200 ) ) ;
#59 = CIRCLE ( 'NONE', #54, 0.2500000000000000000 ) ;
#60 = ORIENTED_EDGE ( 'NONE', *, *, #262, .T. ) ;
#61 = PERSON_AND_ORGANIZATION_ROLE ( 'creator' ) ;
#62 = APPROVAL_ROLE ( '' ) ;
#63 = AXIS2_PLACEMENT_3D ( 'NONE', #301, #276, #125 ) ;
#64 = LINE ( 'NONE', #37, #258 ) ;
#65 =( LENGTH_UNIT ( ) NAMED_UNIT ( * ) SI_UNIT ( $, .METRE. ) );
#66 = CC_DESIGN_DATE_AND_TIME_ASSIGNMENT ( #57, #194, ( #1 ) ) ;
#67 = LOCAL_TIME ( 13, 31, 23.00000000000000000, #147 ) ;
#68 = ORIENTED_EDGE ( 'NONE', *, *, #178, .F. ) ;
#69 = CARTESIAN_POINT ( 'NONE',  ( -0.3267716535433071200, 0.0000000000000000000, 0.0000000000000000000 ) ) ;
#70 = CARTESIAN_POINT ( 'NONE',  ( -0.3267716535433071200, 0.0000000000000000000, 0.0000000000000000000 ) ) ;
#71 = AXIS2_PLACEMENT_3D ( 'NONE', #56, #131, #206 ) ;
#72 = CARTESIAN_POINT ( 'NONE',  ( -0.07874015748031496000, 0.0000000000000000000, 0.0000000000000000000 ) ) ;
#73 = COORDINATED_UNIVERSAL_TIME_OFFSET ( 5, 0, .BEHIND. ) ;
#74 = CONICAL_SURFACE ( 'NONE', #5, 0.2401574803149606800, 0.7853981633974465000 ) ;
#75 = ORIENTED_EDGE ( 'NONE', *, *, #111, .F. ) ;
#76 = ORIENTED_EDGE ( 'NONE', *, *, #130, .T. ) ;
#77 = EDGE_CURVE ( 'NONE', #138, #149, #177, .T. ) ;
#78 = CALENDAR_DATE ( 2014, 16, 9 ) ;
#79 = APPROVAL_STATUS ( 'not_yet_approved' ) ;
#80 = CIRCLE ( 'NONE', #270, 0.2423643388598488200 ) ;
#81 = PRODUCT_DEFINITION_FORMATION_WITH_SPECIFIED_SOURCE ( 'ANY', '', #234, .NOT_KNOWN. ) ;
#82 = CIRCLE ( 'NONE', #38, 0.4055118110236220500 ) ;
#83 = EDGE_LOOP ( 'NONE', ( #169, #154, #60, #195 ) ) ;
#84 = ORIENTED_EDGE ( 'NONE', *, *, #109, .F. ) ;
#85 = PERSON_AND_ORGANIZATION_ROLE ( 'design_supplier' ) ;
#86 = CARTESIAN_POINT ( 'NONE',  ( -0.06889763779527562100, 3.061616997868383000E-017, -0.2500000000000000000 ) ) ;
#87 = UNCERTAINTY_MEASURE_WITH_UNIT (LENGTH_MEASURE( 1.000000000000000100E-005 ), #241, 'distance_accuracy_value', 'NONE');
#88 = PERSON_AND_ORGANIZATION ( #112, #291 ) ;
#89 = AXIS2_PLACEMENT_3D ( 'NONE', #261, #304, #164 ) ;
#90 = CIRCLE ( 'NONE', #201, 0.2401574803149606800 ) ;
#91 = EDGE_LOOP ( 'NONE', ( #17, #162, #24, #33 ) ) ;
#92 = CARTESIAN_POINT ( 'NONE',  ( -0.01733400021464733700, 0.0000000000000000000, 0.2500000000000000000 ) ) ;
#93 = EDGE_CURVE ( 'NONE', #126, #284, #14, .T. ) ;
#94 = DIRECTION ( 'NONE',  ( 0.0000000000000000000, 0.0000000000000000000, 1.000000000000000000 ) ) ;
#95 = CARTESIAN_POINT ( 'NONE',  ( -0.01733400021464733700, 0.0000000000000000000, 0.0000000000000000000 ) ) ;
#96 = DIRECTION ( 'NONE',  ( 0.0000000000000000000, 1.000000000000000000, 0.0000000000000000000 ) ) ;
#97 = DIRECTION ( 'NONE',  ( -0.0000000000000000000, 0.0000000000000000000, 1.000000000000000000 ) ) ;
#98 = SPHERICAL_SURFACE ( 'NONE', #217, 0.4055118110236220500 ) ;
#99 = CARTESIAN_POINT ( 'NONE',  ( -0.07874015748031496000, 3.061616997868383000E-017, -0.2500000000000000000 ) ) ;
#100 = ORIENTED_EDGE ( 'NONE', *, *, #2, .F. ) ;
#101 = ORIENTED_EDGE ( 'NONE', *, *, #290, .T. ) ;
#102 = APPROVAL ( #31, 'UNSPECIFIED' ) ;
#103 = CARTESIAN_POINT ( 'NONE',  ( -0.07874015748031496000, 0.0000000000000000000, -0.2401574803149606800 ) ) ;
#104 = LINE ( 'NONE', #151, #153 ) ;
#105 =( GEOMETRIC_REPRESENTATION_CONTEXT ( 3 ) GLOBAL_UNCERTAINTY_ASSIGNED_CONTEXT ( ( #87 ) ) GLOBAL_UNIT_ASSIGNED_CONTEXT ( ( #241, #140, #268 ) ) REPRESENTATION_CONTEXT ( 'NONE', 'WORKASPACE' ) );
#106 = CARTESIAN_POINT ( 'NONE',  ( -0.001657279624395049800, -0.2423643388598487600, -2.968107118121783100E-017 ) ) ;
#107 = APPROVAL_PERSON_ORGANIZATION ( #157, #102, #186 ) ;
#108 = APPROVAL_ROLE ( '' ) ;
#109 = EDGE_CURVE ( 'NONE', #156, #149, #23, .T. ) ;
#110 = CARTESIAN_POINT ( 'NONE',  ( -0.001657279624395049800, 0.0000000000000000000, 0.0000000000000000000 ) ) ;
#111 = EDGE_CURVE ( 'NONE', #126, #16, #209, .T. ) ;
#112 = PERSON ( 'UNSPECIFIED', 'UNSPECIFIED', 'UNSPECIFIED', ('UNSPECIFIED'), ('UNSPECIFIED'), ('UNSPECIFIED') ) ;
#113 = APPROVAL_STATUS ( 'not_yet_approved' ) ;
#114 = CONICAL_SURFACE ( 'NONE', #248, 0.2500000000000000000, 0.4532502498112563300 ) ;
#115 = LOCAL_TIME ( 13, 31, 23.00000000000000000, #133 ) ;
#116 = CC_DESIGN_APPROVAL ( #102, ( #81 ) ) ;
#117 = PERSON_AND_ORGANIZATION ( #112, #291 ) ;
#118 = ORIENTED_EDGE ( 'NONE', *, *, #290, .F. ) ;
#119 = DIRECTION ( 'NONE',  ( 0.7071067811865487900, 0.0000000000000000000, -0.7071067811865462400 ) ) ;
#120 = ADVANCED_FACE ( 'NONE', ( #168 ), #146, .T. ) ;
#121 = CARTESIAN_POINT ( 'NONE',  ( -0.01733400021464733700, 3.061616997868383000E-017, -0.2500000000000000000 ) ) ;
#122 = CARTESIAN_POINT ( 'NONE',  ( -0.06889763779527562100, 0.0000000000000000000, 0.2500000000000000000 ) ) ;
#123 = CIRCLE ( 'NONE', #231, 0.2500000000000000000 ) ;
#124 = DIRECTION ( 'NONE',  ( 0.0000000000000000000, 0.0000000000000000000, -1.000000000000000000 ) ) ;
#125 = DIRECTION ( 'NONE',  ( 0.0000000000000000000, 0.0000000000000000000, 1.000000000000000000 ) ) ;
#126 = VERTEX_POINT ( 'NONE', #121 ) ;
#127 = DATE_AND_TIME ( #237, #13 ) ;
#128 = PERSON_AND_ORGANIZATION ( #112, #291 ) ;
#129 = ORIENTED_EDGE ( 'NONE', *, *, #130, .F. ) ;
#130 = EDGE_CURVE ( 'NONE', #198, #278, #227, .T. ) ;
#131 = DIRECTION ( 'NONE',  ( 1.000000000000000000, 0.0000000000000000000, 0.0000000000000000000 ) ) ;
#132 = DIRECTION ( 'NONE',  ( 0.0000000000000000000, 1.224646799147353200E-016, -1.000000000000000000 ) ) ;
#133 = COORDINATED_UNIVERSAL_TIME_OFFSET ( 5, 0, .BEHIND. ) ;
#134 = DIRECTION ( 'NONE',  ( 0.0000000000000000000, 0.0000000000000000000, 1.000000000000000000 ) ) ;
#135 = CC_DESIGN_PERSON_AND_ORGANIZATION_ASSIGNMENT ( #280, #27, ( #81 ) ) ;
#136 = DIRECTION ( 'NONE',  ( 1.000000000000000000, 0.0000000000000000000, 0.0000000000000000000 ) ) ;
#137 = ORIENTED_EDGE ( 'NONE', *, *, #262, .F. ) ;
#138 = VERTEX_POINT ( 'NONE', #45 ) ;
#139 = CARTESIAN_POINT ( 'NONE',  ( -0.07874015748031496000, 0.0000000000000000000, 0.0000000000000000000 ) ) ;
#140 =( NAMED_UNIT ( * ) PLANE_ANGLE_UNIT ( ) SI_UNIT ( $, .RADIAN. ) );
#141 = APPLICATION_CONTEXT ( 'configuration controlled 3d designs of mechanical parts and assemblies' ) ;
#142 = APPLICATION_PROTOCOL_DEFINITION ( 'international standard', 'config_control_design', 1994, #165 ) ;
#143 = DESIGN_CONTEXT ( 'detailed design', #165, 'design' ) ;
#144 = AXIS2_PLACEMENT_3D ( 'NONE', #281, #306, #233 ) ;
#145 = APPROVAL_PERSON_ORGANIZATION ( #88, #221, #108 ) ;
#146 = CONICAL_SURFACE ( 'NONE', #166, 0.2500000000000000000, 0.4532502498112563300 ) ;
#147 = COORDINATED_UNIVERSAL_TIME_OFFSET ( 5, 0, .BEHIND. ) ;
#148 = DIRECTION ( 'NONE',  ( 1.000000000000000000, 0.0000000000000000000, 0.0000000000000000000 ) ) ;
#149 = VERTEX_POINT ( 'NONE', #246 ) ;
#150 = AXIS2_PLACEMENT_3D ( 'NONE', #176, #275, #323 ) ;
#151 = CARTESIAN_POINT ( 'NONE',  ( -0.07874015748031496000, 2.941080895590100600E-017, 0.2401574803149606800 ) ) ;
#152 = PERSON_AND_ORGANIZATION ( #112, #291 ) ;
#153 = VECTOR ( 'NONE', #224, 39.37007874015748100 ) ;
#154 = ORIENTED_EDGE ( 'NONE', *, *, #77, .T. ) ;
#155 = CC_DESIGN_PERSON_AND_ORGANIZATION_ASSIGNMENT ( #152, #85, ( #81 ) ) ;
#156 = VERTEX_POINT ( 'NONE', #252 ) ;
#157 = PERSON_AND_ORGANIZATION ( #112, #291 ) ;
#158 = CARTESIAN_POINT ( 'NONE',  ( -0.06889763779527562100, 0.0000000000000000000, 0.0000000000000000000 ) ) ;
#159 = AXIS2_PLACEMENT_3D ( 'NONE', #193, #288, #269 ) ;
#160 = SPHERICAL_SURFACE ( 'NONE', #43, 0.4055118110236220500 ) ;
#161 = CIRCLE ( 'NONE', #71, 0.2423643388598488200 ) ;
#162 = ORIENTED_EDGE ( 'NONE', *, *, #111, .T. ) ;
#163 = EDGE_LOOP ( 'NONE', ( #84, #101, #9, #220, #137 ) ) ;
#164 = DIRECTION ( 'NONE',  ( 0.0000000000000000000, 0.0000000000000000000, -1.000000000000000000 ) ) ;
#165 = APPLICATION_CONTEXT ( 'configuration controlled 3d designs of mechanical parts and assemblies' ) ;
#166 = AXIS2_PLACEMENT_3D ( 'NONE', #95, #229, #203 ) ;
#167 = MECHANICAL_CONTEXT ( 'NONE', #141, 'mechanical' ) ;
#168 = FACE_OUTER_BOUND ( 'NONE', #273, .T. ) ;
#169 = ORIENTED_EDGE ( 'NONE', *, *, #311, .F. ) ;
#170 = EDGE_LOOP ( 'NONE', ( #76, #230 ) ) ;
#171 = SECURITY_CLASSIFICATION ( '', '', #259 ) ;
#172 = APPROVAL_DATE_TIME ( #208, #15 ) ;
#173 = DIRECTION ( 'NONE',  ( -0.0000000000000000000, 0.0000000000000000000, -1.000000000000000000 ) ) ;
#174 = ADVANCED_FACE ( 'NONE', ( #46 ), #98, .T. ) ;
#175 = DIRECTION ( 'NONE',  ( -1.000000000000000000, -0.0000000000000000000, -0.0000000000000000000 ) ) ;
#176 = CARTESIAN_POINT ( 'NONE',  ( -0.01733400021464733700, 0.0000000000000000000, 0.0000000000000000000 ) ) ;
#177 = CIRCLE ( 'NONE', #26, 0.4055118110236220500 ) ;
#178 = EDGE_CURVE ( 'NONE', #278, #198, #90, .T. ) ;
#179 = LOCAL_TIME ( 13, 31, 23.00000000000000000, #197 ) ;
#180 = LINE ( 'NONE', #286, #210 ) ;
#181 = AXIS2_PLACEMENT_3D ( 'NONE', #274, #225, #249 ) ;
#182 = FACE_OUTER_BOUND ( 'NONE', #292, .T. ) ;
#183 = ORIENTED_EDGE ( 'NONE', *, *, #190, .F. ) ;
#184 = CALENDAR_DATE ( 2014, 16, 9 ) ;
#185 = DIRECTION ( 'NONE',  ( 0.0000000000000000000, 0.0000000000000000000, 1.000000000000000000 ) ) ;
#186 = APPROVAL_ROLE ( '' ) ;
#187 = CC_DESIGN_PERSON_AND_ORGANIZATION_ASSIGNMENT ( #50, #263, ( #171 ) ) ;
#188 = DIRECTION ( 'NONE',  ( 1.000000000000000000, 0.0000000000000000000, 0.0000000000000000000 ) ) ;
#189 = CYLINDRICAL_SURFACE ( 'NONE', #144, 0.2500000000000000000 ) ;
#190 = EDGE_CURVE ( 'NONE', #278, #191, #104, .T. ) ;
#191 = VERTEX_POINT ( 'NONE', #122 ) ;
#192 = CARTESIAN_POINT ( 'NONE',  ( -0.07874015748031496000, 0.0000000000000000000, 0.0000000000000000000 ) ) ;
#193 = CARTESIAN_POINT ( 'NONE',  ( 0.0000000000000000000, 0.0000000000000000000, 0.0000000000000000000 ) ) ;
#194 = DATE_TIME_ROLE ( 'creation_date' ) ;
#195 = ORIENTED_EDGE ( 'NONE', *, *, #212, .T. ) ;
#196 = EDGE_CURVE ( 'NONE', #16, #126, #123, .T. ) ;
#197 = COORDINATED_UNIVERSAL_TIME_OFFSET ( 5, 0, .BEHIND. ) ;
#198 = VERTEX_POINT ( 'NONE', #297 ) ;
#199 = ADVANCED_FACE ( 'NONE', ( #298 ), #114, .T. ) ;
#200 = CARTESIAN_POINT ( 'NONE',  ( -0.01733400021464733700, 0.0000000000000000000, 0.0000000000000000000 ) ) ;
#201 = AXIS2_PLACEMENT_3D ( 'NONE', #72, #19, #124 ) ;
#202 = DIRECTION ( 'NONE',  ( -0.0000000000000000000, 0.0000000000000000000, -1.000000000000000000 ) ) ;
#203 = DIRECTION ( 'NONE',  ( 0.0000000000000000000, 0.0000000000000000000, 1.000000000000000000 ) ) ;
#204 = CC_DESIGN_DATE_AND_TIME_ASSIGNMENT ( #244, #211, ( #171 ) ) ;
#205 = ORIENTED_EDGE ( 'NONE', *, *, #42, .F. ) ;
#206 = DIRECTION ( 'NONE',  ( 0.0000000000000000000, 0.0000000000000000000, 1.000000000000000000 ) ) ;
#207 = DIRECTION ( 'NONE',  ( 1.000000000000000000, 0.0000000000000000000, 0.0000000000000000000 ) ) ;
#208 = DATE_AND_TIME ( #302, #67 ) ;
#209 = CIRCLE ( 'NONE', #150, 0.2500000000000000000 ) ;
#210 = VECTOR ( 'NONE', #239, 39.37007874015748900 ) ;
#211 = DATE_TIME_ROLE ( 'classification_date' ) ;
#212 = EDGE_CURVE ( 'NONE', #235, #285, #80, .T. ) ;
#213 = EDGE_LOOP ( 'NONE', ( #183, #129, #40, #41 ) ) ;
#214 = DIRECTION ( 'NONE',  ( -0.8990286019835320700, 0.0000000000000000000, 0.4378899094698754400 ) ) ;
#215 = CARTESIAN_POINT ( 'NONE',  ( -0.07874015748031496000, 3.001348946729241800E-017, 0.2401574803149606800 ) ) ;
#216 = APPLICATION_PROTOCOL_DEFINITION ( 'international standard', 'config_control_design', 1994, #141 ) ;
#217 = AXIS2_PLACEMENT_3D ( 'NONE', #69, #202, #96 ) ;
#218 = APPROVAL_DATE_TIME ( #127, #102 ) ;
#219 = FACE_OUTER_BOUND ( 'NONE', #91, .T. ) ;
#220 = ORIENTED_EDGE ( 'NONE', *, *, #228, .F. ) ;
#221 = APPROVAL ( #79, 'UNSPECIFIED' ) ;
#222 = CARTESIAN_POINT ( 'NONE',  ( -0.3267716535433071200, 0.0000000000000000000, 0.0000000000000000000 ) ) ;
#223 = ADVANCED_BREP_SHAPE_REPRESENTATION ( 'TTN031779-E0W', ( #267, #159 ), #105 ) ;
#224 = DIRECTION ( 'NONE',  ( 0.7071067811865487900, 8.659560562354916800E-017, 0.7071067811865462400 ) ) ;
#225 = DIRECTION ( 'NONE',  ( -1.000000000000000000, -0.0000000000000000000, -0.0000000000000000000 ) ) ;
#226 = PERSON_AND_ORGANIZATION ( #112, #291 ) ;
#227 = CIRCLE ( 'NONE', #181, 0.2401574803149606800 ) ;
#228 = EDGE_CURVE ( 'NONE', #235, #16, #64, .T. ) ;
#229 = DIRECTION ( 'NONE',  ( -1.000000000000000000, -0.0000000000000000000, -0.0000000000000000000 ) ) ;
#230 = ORIENTED_EDGE ( 'NONE', *, *, #178, .T. ) ;
#231 = AXIS2_PLACEMENT_3D ( 'NONE', #200, #175, #94 ) ;
#232 = FACE_OUTER_BOUND ( 'NONE', #170, .T. ) ;
#233 = DIRECTION ( 'NONE',  ( 0.0000000000000000000, 0.0000000000000000000, 1.000000000000000000 ) ) ;
#234 = PRODUCT ( 'TTN031779-E0W', 'TTN031779-E0W', '', ( #167 ) ) ;
#235 = VERTEX_POINT ( 'NONE', #58 ) ;
#236 = DIRECTION ( 'NONE',  ( 1.000000000000000000, 0.0000000000000000000, 0.0000000000000000000 ) ) ;
#237 = CALENDAR_DATE ( 2014, 16, 9 ) ;
#238 = CC_DESIGN_APPROVAL ( #221, ( #171 ) ) ;
#239 = DIRECTION ( 'NONE',  ( -0.8990286019835320700, 5.362604760112073200E-017, -0.4378899094698754400 ) ) ;
#240 = DIRECTION ( 'NONE',  ( 0.0000000000000000000, 0.0000000000000000000, 1.000000000000000000 ) ) ;
#241 =( CONVERSION_BASED_UNIT ( 'INCH', #256 ) LENGTH_UNIT ( ) NAMED_UNIT ( #18 ) );
#242 = PERSON_AND_ORGANIZATION_ROLE ( 'design_owner' ) ;
#243 = CYLINDRICAL_SURFACE ( 'NONE', #317, 0.2500000000000000000 ) ;
#244 = DATE_AND_TIME ( #22, #179 ) ;
#245 = FACE_OUTER_BOUND ( 'NONE', #213, .T. ) ;
#246 = CARTESIAN_POINT ( 'NONE',  ( -0.001657279624395049800, 0.2423643388598487600, 0.0000000000000000000 ) ) ;
#247 = ADVANCED_FACE ( 'NONE', ( #219 ), #243, .T. ) ;
#248 = AXIS2_PLACEMENT_3D ( 'NONE', #47, #21, #295 ) ;
#249 = DIRECTION ( 'NONE',  ( 0.0000000000000000000, 0.0000000000000000000, -1.000000000000000000 ) ) ;
#250 = VECTOR ( 'NONE', #324, 39.37007874015748100 ) ;
#251 = CARTESIAN_POINT ( 'NONE',  ( -0.06889763779527562100, 0.0000000000000000000, 0.0000000000000000000 ) ) ;
#252 = CARTESIAN_POINT ( 'NONE',  ( -0.001657279624395049800, 3.014862057995083100E-017, -0.2423643388598488200 ) ) ;
#253 = ORIENTED_EDGE ( 'NONE', *, *, #190, .T. ) ;
#254 = COORDINATED_UNIVERSAL_TIME_OFFSET ( 5, 0, .BEHIND. ) ;
#255 = CC_DESIGN_SECURITY_CLASSIFICATION ( #171, ( #81 ) ) ;
#256 = LENGTH_MEASURE_WITH_UNIT ( LENGTH_MEASURE( 0.02539999999999999900 ), #65 );
#257 = ORIENTED_EDGE ( 'NONE', *, *, #264, .F. ) ;
#258 = VECTOR ( 'NONE', #214, 39.37007874015748900 ) ;
#259 = SECURITY_CLASSIFICATION_LEVEL ( 'unclassified' ) ;
#260 = DIRECTION ( 'NONE',  ( 1.000000000000000000, 0.0000000000000000000, 0.0000000000000000000 ) ) ;
#261 = CARTESIAN_POINT ( 'NONE',  ( -0.07874015748031496000, 0.0000000000000000000, 0.0000000000000000000 ) ) ;
#262 = EDGE_CURVE ( 'NONE', #149, #235, #316, .T. ) ;
#263 = PERSON_AND_ORGANIZATION_ROLE ( 'classification_officer' ) ;
#264 = EDGE_CURVE ( 'NONE', #16, #191, #39, .T. ) ;
#265 = EDGE_LOOP ( 'NONE', ( #68, #253, #205, #100 ) ) ;
#266 = CARTESIAN_POINT ( 'NONE',  ( -0.07874015748031496000, 0.0000000000000000000, 0.2500000000000000000 ) ) ;
#267 = MANIFOLD_SOLID_BREP ( 'TTN031780-1-solid1', #305 ) ;
#268 =( NAMED_UNIT ( * ) SI_UNIT ( $, .STERADIAN. ) SOLID_ANGLE_UNIT ( ) );
#269 = DIRECTION ( 'NONE',  ( 1.000000000000000000, 0.0000000000000000000, 0.0000000000000000000 ) ) ;
#270 = AXIS2_PLACEMENT_3D ( 'NONE', #110, #236, #240 ) ;
#271 = ADVANCED_FACE ( 'NONE', ( #232 ), #7, .F. ) ;
#272 = PRODUCT_RELATED_PRODUCT_CATEGORY ( 'detail', '', ( #234 ) ) ;
#273 = EDGE_LOOP ( 'NONE', ( #118, #35, #51, #48, #75 ) ) ;
#274 = CARTESIAN_POINT ( 'NONE',  ( -0.07874015748031496000, 0.0000000000000000000, 0.0000000000000000000 ) ) ;
#275 = DIRECTION ( 'NONE',  ( -1.000000000000000000, -0.0000000000000000000, -0.0000000000000000000 ) ) ;
#276 = DIRECTION ( 'NONE',  ( 1.000000000000000000, 0.0000000000000000000, 0.0000000000000000000 ) ) ;
#277 = CIRCLE ( 'NONE', #12, 0.2500000000000000000 ) ;
#278 = VERTEX_POINT ( 'NONE', #215 ) ;
#279 = ORIENTED_EDGE ( 'NONE', *, *, #42, .T. ) ;
#280 = PERSON_AND_ORGANIZATION ( #112, #291 ) ;
#281 = CARTESIAN_POINT ( 'NONE',  ( -0.07874015748031496000, 0.0000000000000000000, 0.0000000000000000000 ) ) ;
#282 = VECTOR ( 'NONE', #119, 39.37007874015748100 ) ;
#283 = CONICAL_SURFACE ( 'NONE', #89, 0.2401574803149606800, 0.7853981633974465000 ) ;
#284 = VERTEX_POINT ( 'NONE', #86 ) ;
#285 = VERTEX_POINT ( 'NONE', #106 ) ;
#286 = CARTESIAN_POINT ( 'NONE',  ( -0.01733400021464733700, 3.061616997868383000E-017, -0.2500000000000000000 ) ) ;
#287 = CARTESIAN_POINT ( 'NONE',  ( -0.001657279624395049800, 0.0000000000000000000, 0.0000000000000000000 ) ) ;
#288 = DIRECTION ( 'NONE',  ( 0.0000000000000000000, 0.0000000000000000000, 1.000000000000000000 ) ) ;
#289 = LINE ( 'NONE', #103, #282 ) ;
#290 = EDGE_CURVE ( 'NONE', #156, #126, #180, .T. ) ;
#291 = ORGANIZATION ( 'UNSPECIFIED', 'UNSPECIFIED', '' ) ;
#292 = EDGE_LOOP ( 'NONE', ( #315, #55, #10, #299 ) ) ;
#293 = ORIENTED_EDGE ( 'NONE', *, *, #93, .T. ) ;
#294 = ADVANCED_FACE ( 'NONE', ( #29 ), #74, .T. ) ;
#295 = DIRECTION ( 'NONE',  ( 0.0000000000000000000, 0.0000000000000000000, 1.000000000000000000 ) ) ;
#296 = AXIS2_PLACEMENT_3D ( 'NONE', #287, #136, #134 ) ;
#297 = CARTESIAN_POINT ( 'NONE',  ( -0.07874015748031496000, 0.0000000000000000000, -0.2401574803149606800 ) ) ;
#298 = FACE_OUTER_BOUND ( 'NONE', #163, .T. ) ;
#299 = ORIENTED_EDGE ( 'NONE', *, *, #109, .T. ) ;
#300 = EDGE_LOOP ( 'NONE', ( #3, #293, #279, #257 ) ) ;
#301 = CARTESIAN_POINT ( 'NONE',  ( -0.001657279624395049800, 0.0000000000000000000, 0.0000000000000000000 ) ) ;
#302 = CALENDAR_DATE ( 2014, 16, 9 ) ;
#303 = DIRECTION ( 'NONE',  ( 0.0000000000000000000, 1.000000000000000000, 1.224646799147353200E-016 ) ) ;
#304 = DIRECTION ( 'NONE',  ( 1.000000000000000000, 0.0000000000000000000, 0.0000000000000000000 ) ) ;
#305 = CLOSED_SHELL ( 'NONE', ( #294, #199, #322, #44, #271, #174, #247, #120, #320 ) ) ;
#306 = DIRECTION ( 'NONE',  ( -1.000000000000000000, -0.0000000000000000000, -0.0000000000000000000 ) ) ;
#307 = CC_DESIGN_PERSON_AND_ORGANIZATION_ASSIGNMENT ( #117, #242, ( #234 ) ) ;
#308 = DIRECTION ( 'NONE',  ( 0.0000000000000000000, 0.0000000000000000000, -1.000000000000000000 ) ) ;
#309 = DIRECTION ( 'NONE',  ( 0.0000000000000000000, 0.0000000000000000000, -1.000000000000000000 ) ) ;
#310 = DATE_AND_TIME ( #184, #115 ) ;
#311 = EDGE_CURVE ( 'NONE', #138, #285, #82, .T. ) ;
#312 = DIRECTION ( 'NONE',  ( -1.000000000000000000, -0.0000000000000000000, -0.0000000000000000000 ) ) ;
#313 = EDGE_CURVE ( 'NONE', #191, #284, #59, .T. ) ;
#314 = FACE_OUTER_BOUND ( 'NONE', #300, .T. ) ;
#315 = ORIENTED_EDGE ( 'NONE', *, *, #77, .F. ) ;
#316 = CIRCLE ( 'NONE', #296, 0.2423643388598488200 ) ;
#317 = AXIS2_PLACEMENT_3D ( 'NONE', #192, #11, #185 ) ;
#318 = EDGE_CURVE ( 'NONE', #285, #156, #161, .T. ) ;
#319 = LOCAL_TIME ( 13, 31, 23.00000000000000000, #73 ) ;
#320 = ADVANCED_FACE ( 'NONE', ( #245 ), #283, .T. ) ;
#321 = PRODUCT_DEFINITION_SHAPE ( 'NONE', 'NONE',  #1 ) ;
#322 = ADVANCED_FACE ( 'NONE', ( #314 ), #189, .T. ) ;
#323 = DIRECTION ( 'NONE',  ( 0.0000000000000000000, 0.0000000000000000000, 1.000000000000000000 ) ) ;
#324 = DIRECTION ( 'NONE',  ( -1.000000000000000000, -0.0000000000000000000, -0.0000000000000000000 ) ) ;
ENDSEC;
END-ISO-10303-21;
