ISO-10303-21;
HEADER;
FILE_DESCRIPTION (( 'STEP AP203' ),
    '1' );
FILE_NAME ('Web Model 45183_45183.step',
    '2017-04-10T16:59:14',
    ( '' ),
    ( '' ),
    'SwSTEP 2.0',
    'SolidWorks 2016',
    '' );
FILE_SCHEMA (( 'CONFIG_CONTROL_DESIGN' ));
ENDSEC;

DATA;
#1 =( GEOMETRIC_REPRESENTATION_CONTEXT ( 3 ) GLOBAL_UNCERTAINTY_ASSIGNED_CONTEXT ( ( #178 ) ) GLOBAL_UNIT_ASSIGNED_CONTEXT ( ( #108, #214, #89 ) ) REPRESENTATION_CONTEXT ( 'NONE', 'WORKASPACE' ) );
#2 = VERTEX_POINT ( 'NONE', #62 ) ;
#3 = ORIENTED_EDGE ( 'NONE', *, *, #81, .T. ) ;
#4 = APPROVAL ( #92, 'UNSPECIFIED' ) ;
#5 = DIRECTION ( 'NONE',  ( 0.0000000000000000000, 0.0000000000000000000, -1.000000000000000000 ) ) ;
#6 = APPLICATION_CONTEXT ( 'configuration controlled 3d designs of mechanical parts and assemblies' ) ;
#7 = DIRECTION ( 'NONE',  ( 0.0000000000000000000, 0.0000000000000000000, 1.000000000000000000 ) ) ;
#8 = DATE_AND_TIME ( #196, #110 ) ;
#9 = DIRECTION ( 'NONE',  ( 0.0000000000000000000, -1.000000000000000000, 0.0000000000000000000 ) ) ;
#10 = AXIS2_PLACEMENT_3D ( 'NONE', #180, #9, #156 ) ;
#11 = VERTEX_POINT ( 'NONE', #77 ) ;
#12 = VECTOR ( 'NONE', #142, 1000.000000000000000 ) ;
#13 = APPROVAL_DATE_TIME ( #8, #102 ) ;
#14 = PLANE ( 'NONE',  #113 ) ;
#15 = EDGE_LOOP ( 'NONE', ( #236, #58, #39, #207 ) ) ;
#16 = CARTESIAN_POINT ( 'NONE',  ( -12.50000000000000000, -12.50000000000000000, -1.000000000000000000 ) ) ;
#17 = CARTESIAN_POINT ( 'NONE',  ( 12.50000000000000000, -12.50000000000000000, -1.000000000000000000 ) ) ;
#18 = LINE ( 'NONE', #63, #140 ) ;
#19 = PRODUCT_DEFINITION_SHAPE ( 'NONE', 'NONE',  #90 ) ;
#20 = CC_DESIGN_APPROVAL ( #4, ( #210 ) ) ;
#21 = APPROVAL_DATE_TIME ( #50, #4 ) ;
#22 = EDGE_CURVE ( 'NONE', #99, #73, #208, .T. ) ;
#23 = DATE_AND_TIME ( #60, #213 ) ;
#24 = CARTESIAN_POINT ( 'NONE',  ( -12.50000000000000000, -12.50000000000000000, 1.000000000000000000 ) ) ;
#25 = EDGE_CURVE ( 'NONE', #73, #78, #27, .T. ) ;
#26 = COORDINATED_UNIVERSAL_TIME_OFFSET ( 5, 0, .BEHIND. ) ;
#27 = LINE ( 'NONE', #163, #35 ) ;
#28 = CALENDAR_DATE ( 2017, 10, 4 ) ;
#29 = APPLICATION_PROTOCOL_DEFINITION ( 'international standard', 'config_control_design', 1994, #6 ) ;
#30 = EDGE_LOOP ( 'NONE', ( #134, #179, #149, #101 ) ) ;
#31 = CARTESIAN_POINT ( 'NONE',  ( 12.50000000000000000, 12.50000000000000000, 1.000000000000000000 ) ) ;
#32 = ADVANCED_FACE ( 'NONE', ( #120 ), #14, .F. ) ;
#33 = LOCAL_TIME ( 12, 59, 14.00000000000000000, #129 ) ;
#34 = DIRECTION ( 'NONE',  ( 0.0000000000000000000, -0.0000000000000000000, 1.000000000000000000 ) ) ;
#35 = VECTOR ( 'NONE', #131, 1000.000000000000000 ) ;
#36 = CC_DESIGN_SECURITY_CLASSIFICATION ( #210, ( #152 ) ) ;
#37 = FACE_OUTER_BOUND ( 'NONE', #61, .T. ) ;
#38 = DIRECTION ( 'NONE',  ( -1.000000000000000000, 0.0000000000000000000, 0.0000000000000000000 ) ) ;
#39 = ORIENTED_EDGE ( 'NONE', *, *, #41, .F. ) ;
#40 = CARTESIAN_POINT ( 'NONE',  ( 12.50000000000000000, -12.50000000000000000, 1.000000000000000000 ) ) ;
#41 = EDGE_CURVE ( 'NONE', #2, #11, #186, .T. ) ;
#42 = FACE_OUTER_BOUND ( 'NONE', #15, .T. ) ;
#43 = AXIS2_PLACEMENT_3D ( 'NONE', #69, #5, #47 ) ;
#44 = VECTOR ( 'NONE', #228, 1000.000000000000000 ) ;
#45 = EDGE_CURVE ( 'NONE', #88, #2, #18, .T. ) ;
#46 = MANIFOLD_SOLID_BREP ( 'Extrude1', #98 ) ;
#47 = DIRECTION ( 'NONE',  ( -1.000000000000000000, 0.0000000000000000000, -0.0000000000000000000 ) ) ;
#48 = PRODUCT_RELATED_PRODUCT_CATEGORY ( 'detail', '', ( #226 ) ) ;
#49 = ORIENTED_EDGE ( 'NONE', *, *, #116, .T. ) ;
#50 = DATE_AND_TIME ( #109, #97 ) ;
#51 = ORIENTED_EDGE ( 'NONE', *, *, #66, .T. ) ;
#52 = LOCAL_TIME ( 12, 59, 14.00000000000000000, #105 ) ;
#53 = PERSON_AND_ORGANIZATION_ROLE ( 'creator' ) ;
#54 = CARTESIAN_POINT ( 'NONE',  ( 0.0000000000000000000, 0.0000000000000000000, 0.0000000000000000000 ) ) ;
#55 = ADVANCED_FACE ( 'NONE', ( #37 ), #192, .F. ) ;
#56 = COORDINATED_UNIVERSAL_TIME_OFFSET ( 5, 0, .BEHIND. ) ;
#57 = SECURITY_CLASSIFICATION_LEVEL ( 'unclassified' ) ;
#58 = ORIENTED_EDGE ( 'NONE', *, *, #81, .F. ) ;
#59 = ORIENTED_EDGE ( 'NONE', *, *, #25, .T. ) ;
#60 = CALENDAR_DATE ( 2017, 10, 4 ) ;
#61 = EDGE_LOOP ( 'NONE', ( #202, #209, #223, #49 ) ) ;
#62 = CARTESIAN_POINT ( 'NONE',  ( 12.50000000000000000, -12.50000000000000000, -1.000000000000000000 ) ) ;
#63 = CARTESIAN_POINT ( 'NONE',  ( 12.50000000000000000, -12.50000000000000000, 1.000000000000000000 ) ) ;
#64 = EDGE_LOOP ( 'NONE', ( #3, #115, #154, #198 ) ) ;
#65 = AXIS2_PLACEMENT_3D ( 'NONE', #54, #7, #106 ) ;
#66 = EDGE_CURVE ( 'NONE', #88, #117, #114, .T. ) ;
#67 = APPROVAL_STATUS ( 'not_yet_approved' ) ;
#68 = COORDINATED_UNIVERSAL_TIME_OFFSET ( 5, 0, .BEHIND. ) ;
#69 = CARTESIAN_POINT ( 'NONE',  ( -12.50000000000000000, 12.50000000000000000, -1.000000000000000000 ) ) ;
#70 = EDGE_LOOP ( 'NONE', ( #59, #162, #145, #205 ) ) ;
#71 = CARTESIAN_POINT ( 'NONE',  ( -12.50000000000000000, 12.50000000000000000, -1.000000000000000000 ) ) ;
#72 = EDGE_CURVE ( 'NONE', #189, #88, #130, .T. ) ;
#73 = VERTEX_POINT ( 'NONE', #71 ) ;
#74 = DIRECTION ( 'NONE',  ( 0.0000000000000000000, 1.000000000000000000, 0.0000000000000000000 ) ) ;
#75 = CARTESIAN_POINT ( 'NONE',  ( -12.50000000000000000, 12.50000000000000000, 1.000000000000000000 ) ) ;
#76 = DIRECTION ( 'NONE',  ( -1.000000000000000000, -0.0000000000000000000, -0.0000000000000000000 ) ) ;
#77 = CARTESIAN_POINT ( 'NONE',  ( 12.50000000000000000, 12.50000000000000000, -1.000000000000000000 ) ) ;
#78 = VERTEX_POINT ( 'NONE', #125 ) ;
#79 = CC_DESIGN_PERSON_AND_ORGANIZATION_ASSIGNMENT ( #127, #141, ( #226 ) ) ;
#80 = LINE ( 'NONE', #16, #100 ) ;
#81 = EDGE_CURVE ( 'NONE', #11, #73, #234, .T. ) ;
#82 = AXIS2_PLACEMENT_3D ( 'NONE', #40, #38, #165 ) ;
#83 = APPROVAL_ROLE ( '' ) ;
#84 = PERSON_AND_ORGANIZATION_ROLE ( 'creator' ) ;
#85 = FACE_OUTER_BOUND ( 'NONE', #30, .T. ) ;
#86 = PERSON_AND_ORGANIZATION ( #174, #139 ) ;
#87 = APPLICATION_PROTOCOL_DEFINITION ( 'international standard', 'config_control_design', 1994, #212 ) ;
#88 = VERTEX_POINT ( 'NONE', #147 ) ;
#89 =( NAMED_UNIT ( * ) SI_UNIT ( $, .STERADIAN. ) SOLID_ANGLE_UNIT ( ) );
#90 = PRODUCT_DEFINITION ( 'UNKNOWN', '', #152, #96 ) ;
#91 = PERSON_AND_ORGANIZATION ( #174, #139 ) ;
#92 = APPROVAL_STATUS ( 'not_yet_approved' ) ;
#93 = ORIENTED_EDGE ( 'NONE', *, *, #72, .T. ) ;
#94 = CARTESIAN_POINT ( 'NONE',  ( -12.50000000000000000, -12.50000000000000000, 1.000000000000000000 ) ) ;
#95 = EDGE_CURVE ( 'NONE', #117, #99, #104, .T. ) ;
#96 = DESIGN_CONTEXT ( 'detailed design', #6, 'design' ) ;
#97 = LOCAL_TIME ( 12, 59, 14.00000000000000000, #26 ) ;
#98 = CLOSED_SHELL ( 'NONE', ( #32, #55, #112, #216, #197, #143 ) ) ;
#99 = VERTEX_POINT ( 'NONE', #184 ) ;
#100 = VECTOR ( 'NONE', #150, 1000.000000000000000 ) ;
#101 = ORIENTED_EDGE ( 'NONE', *, *, #45, .T. ) ;
#102 = APPROVAL ( #67, 'UNSPECIFIED' ) ;
#103 = DIRECTION ( 'NONE',  ( -0.0000000000000000000, -0.0000000000000000000, -1.000000000000000000 ) ) ;
#104 = LINE ( 'NONE', #164, #124 ) ;
#105 = COORDINATED_UNIVERSAL_TIME_OFFSET ( 5, 0, .BEHIND. ) ;
#106 = DIRECTION ( 'NONE',  ( 1.000000000000000000, 0.0000000000000000000, 0.0000000000000000000 ) ) ;
#107 = EDGE_CURVE ( 'NONE', #99, #189, #175, .T. ) ;
#108 =( LENGTH_UNIT ( ) NAMED_UNIT ( * ) SI_UNIT ( .MILLI., .METRE. ) );
#109 = CALENDAR_DATE ( 2017, 10, 4 ) ;
#110 = LOCAL_TIME ( 12, 59, 14.00000000000000000, #56 ) ;
#111 = DIRECTION ( 'NONE',  ( 0.0000000000000000000, 0.0000000000000000000, -1.000000000000000000 ) ) ;
#112 = ADVANCED_FACE ( 'NONE', ( #85 ), #235, .F. ) ;
#113 = AXIS2_PLACEMENT_3D ( 'NONE', #206, #137, #237 ) ;
#114 = LINE ( 'NONE', #158, #12 ) ;
#115 = ORIENTED_EDGE ( 'NONE', *, *, #22, .F. ) ;
#116 = EDGE_CURVE ( 'NONE', #189, #78, #153, .T. ) ;
#117 = VERTEX_POINT ( 'NONE', #118 ) ;
#118 = CARTESIAN_POINT ( 'NONE',  ( 12.50000000000000000, 12.50000000000000000, 1.000000000000000000 ) ) ;
#119 = VECTOR ( 'NONE', #168, 1000.000000000000000 ) ;
#120 = FACE_OUTER_BOUND ( 'NONE', #70, .T. ) ;
#121 = CC_DESIGN_APPROVAL ( #102, ( #90 ) ) ;
#122 = EDGE_CURVE ( 'NONE', #78, #2, #80, .T. ) ;
#123 = AXIS2_PLACEMENT_3D ( 'NONE', #191, #188, #34 ) ;
#124 = VECTOR ( 'NONE', #76, 1000.000000000000000 ) ;
#125 = CARTESIAN_POINT ( 'NONE',  ( -12.50000000000000000, -12.50000000000000000, -1.000000000000000000 ) ) ;
#126 = MECHANICAL_CONTEXT ( 'NONE', #212, 'mechanical' ) ;
#127 = PERSON_AND_ORGANIZATION ( #174, #139 ) ;
#128 = CC_DESIGN_PERSON_AND_ORGANIZATION_ASSIGNMENT ( #218, #53, ( #90 ) ) ;
#129 = COORDINATED_UNIVERSAL_TIME_OFFSET ( 5, 0, .BEHIND. ) ;
#130 = LINE ( 'NONE', #220, #219 ) ;
#131 = DIRECTION ( 'NONE',  ( -0.0000000000000000000, -1.000000000000000000, -0.0000000000000000000 ) ) ;
#132 = CARTESIAN_POINT ( 'NONE',  ( -12.50000000000000000, -12.50000000000000000, 1.000000000000000000 ) ) ;
#133 = APPROVAL_PERSON_ORGANIZATION ( #171, #4, #148 ) ;
#134 = ORIENTED_EDGE ( 'NONE', *, *, #41, .T. ) ;
#135 = FACE_OUTER_BOUND ( 'NONE', #64, .T. ) ;
#136 = CC_DESIGN_DATE_AND_TIME_ASSIGNMENT ( #204, #181, ( #90 ) ) ;
#137 = DIRECTION ( 'NONE',  ( 1.000000000000000000, 0.0000000000000000000, 0.0000000000000000000 ) ) ;
#138 = EDGE_LOOP ( 'NONE', ( #195, #93, #51, #231 ) ) ;
#139 = ORGANIZATION ( 'UNSPECIFIED', 'UNSPECIFIED', '' ) ;
#140 = VECTOR ( 'NONE', #103, 1000.000000000000000 ) ;
#141 = PERSON_AND_ORGANIZATION_ROLE ( 'design_owner' ) ;
#142 = DIRECTION ( 'NONE',  ( 0.0000000000000000000, 1.000000000000000000, 0.0000000000000000000 ) ) ;
#143 = ADVANCED_FACE ( 'NONE', ( #42 ), #151, .T. ) ;
#144 = CARTESIAN_POINT ( 'NONE',  ( -12.50000000000000000, 12.50000000000000000, 1.000000000000000000 ) ) ;
#145 = ORIENTED_EDGE ( 'NONE', *, *, #107, .F. ) ;
#146 = PERSON_AND_ORGANIZATION ( #174, #139 ) ;
#147 = CARTESIAN_POINT ( 'NONE',  ( 12.50000000000000000, -12.50000000000000000, 1.000000000000000000 ) ) ;
#148 = APPROVAL_ROLE ( '' ) ;
#149 = ORIENTED_EDGE ( 'NONE', *, *, #66, .F. ) ;
#150 = DIRECTION ( 'NONE',  ( 1.000000000000000000, 0.0000000000000000000, 0.0000000000000000000 ) ) ;
#151 = PLANE ( 'NONE',  #43 ) ;
#152 = PRODUCT_DEFINITION_FORMATION_WITH_SPECIFIED_SOURCE ( 'ANY', '', #226, .NOT_KNOWN. ) ;
#153 = LINE ( 'NONE', #132, #222 ) ;
#154 = ORIENTED_EDGE ( 'NONE', *, *, #95, .F. ) ;
#155 = PERSON_AND_ORGANIZATION ( #174, #139 ) ;
#156 = DIRECTION ( 'NONE',  ( 0.0000000000000000000, -0.0000000000000000000, -1.000000000000000000 ) ) ;
#157 = APPROVAL ( #199, 'UNSPECIFIED' ) ;
#158 = CARTESIAN_POINT ( 'NONE',  ( 12.50000000000000000, -12.50000000000000000, 1.000000000000000000 ) ) ;
#159 = VECTOR ( 'NONE', #74, 1000.000000000000000 ) ;
#160 = APPROVAL_DATE_TIME ( #23, #157 ) ;
#161 = PERSON_AND_ORGANIZATION_ROLE ( 'classification_officer' ) ;
#162 = ORIENTED_EDGE ( 'NONE', *, *, #116, .F. ) ;
#163 = CARTESIAN_POINT ( 'NONE',  ( -12.50000000000000000, -12.50000000000000000, -1.000000000000000000 ) ) ;
#164 = CARTESIAN_POINT ( 'NONE',  ( -12.50000000000000000, 12.50000000000000000, 1.000000000000000000 ) ) ;
#165 = DIRECTION ( 'NONE',  ( 0.0000000000000000000, 0.0000000000000000000, 1.000000000000000000 ) ) ;
#166 = DIRECTION ( 'NONE',  ( -0.0000000000000000000, -0.0000000000000000000, -1.000000000000000000 ) ) ;
#167 = EDGE_CURVE ( 'NONE', #117, #11, #217, .T. ) ;
#168 = DIRECTION ( 'NONE',  ( -0.0000000000000000000, -0.0000000000000000000, -1.000000000000000000 ) ) ;
#169 = VECTOR ( 'NONE', #166, 1000.000000000000000 ) ;
#170 = APPROVAL_PERSON_ORGANIZATION ( #91, #157, #83 ) ;
#171 = PERSON_AND_ORGANIZATION ( #174, #139 ) ;
#172 = CC_DESIGN_APPROVAL ( #157, ( #152 ) ) ;
#173 = DIRECTION ( 'NONE',  ( -0.0000000000000000000, -0.0000000000000000000, -1.000000000000000000 ) ) ;
#174 = PERSON ( 'UNSPECIFIED', 'UNSPECIFIED', 'UNSPECIFIED', ('UNSPECIFIED'), ('UNSPECIFIED'), ('UNSPECIFIED') ) ;
#175 = LINE ( 'NONE', #94, #44 ) ;
#176 = PERSON_AND_ORGANIZATION ( #174, #139 ) ;
#177 = APPROVAL_ROLE ( '' ) ;
#178 = UNCERTAINTY_MEASURE_WITH_UNIT (LENGTH_MEASURE( 1.000000000000000100E-005 ), #108, 'distance_accuracy_value', 'NONE');
#179 = ORIENTED_EDGE ( 'NONE', *, *, #167, .F. ) ;
#180 = CARTESIAN_POINT ( 'NONE',  ( -12.50000000000000000, 12.50000000000000000, 1.000000000000000000 ) ) ;
#181 = DATE_TIME_ROLE ( 'creation_date' ) ;
#182 = CALENDAR_DATE ( 2017, 10, 4 ) ;
#183 = DIRECTION ( 'NONE',  ( 1.000000000000000000, 0.0000000000000000000, 0.0000000000000000000 ) ) ;
#184 = CARTESIAN_POINT ( 'NONE',  ( -12.50000000000000000, 12.50000000000000000, 1.000000000000000000 ) ) ;
#185 = CC_DESIGN_PERSON_AND_ORGANIZATION_ASSIGNMENT ( #86, #84, ( #152 ) ) ;
#186 = LINE ( 'NONE', #17, #159 ) ;
#187 = PERSON_AND_ORGANIZATION_ROLE ( 'design_supplier' ) ;
#188 = DIRECTION ( 'NONE',  ( 0.0000000000000000000, 1.000000000000000000, 0.0000000000000000000 ) ) ;
#189 = VERTEX_POINT ( 'NONE', #24 ) ;
#190 = DATE_AND_TIME ( #28, #52 ) ;
#191 = CARTESIAN_POINT ( 'NONE',  ( -12.50000000000000000, -12.50000000000000000, 1.000000000000000000 ) ) ;
#192 = PLANE ( 'NONE',  #123 ) ;
#193 = FACE_OUTER_BOUND ( 'NONE', #138, .T. ) ;
#194 = PLANE ( 'NONE',  #10 ) ;
#195 = ORIENTED_EDGE ( 'NONE', *, *, #107, .T. ) ;
#196 = CALENDAR_DATE ( 2017, 10, 4 ) ;
#197 = ADVANCED_FACE ( 'NONE', ( #193 ), #229, .F. ) ;
#198 = ORIENTED_EDGE ( 'NONE', *, *, #167, .T. ) ;
#199 = APPROVAL_STATUS ( 'not_yet_approved' ) ;
#200 = CC_DESIGN_PERSON_AND_ORGANIZATION_ASSIGNMENT ( #155, #187, ( #152 ) ) ;
#201 = DATE_TIME_ROLE ( 'classification_date' ) ;
#202 = ORIENTED_EDGE ( 'NONE', *, *, #122, .T. ) ;
#203 = VECTOR ( 'NONE', #211, 1000.000000000000000 ) ;
#204 = DATE_AND_TIME ( #182, #33 ) ;
#205 = ORIENTED_EDGE ( 'NONE', *, *, #22, .T. ) ;
#206 = CARTESIAN_POINT ( 'NONE',  ( -12.50000000000000000, -12.50000000000000000, 1.000000000000000000 ) ) ;
#207 = ORIENTED_EDGE ( 'NONE', *, *, #122, .F. ) ;
#208 = LINE ( 'NONE', #75, #169 ) ;
#209 = ORIENTED_EDGE ( 'NONE', *, *, #45, .F. ) ;
#210 = SECURITY_CLASSIFICATION ( '', '', #57 ) ;
#211 = DIRECTION ( 'NONE',  ( -1.000000000000000000, -0.0000000000000000000, -0.0000000000000000000 ) ) ;
#212 = APPLICATION_CONTEXT ( 'configuration controlled 3d designs of mechanical parts and assemblies' ) ;
#213 = LOCAL_TIME ( 12, 59, 14.00000000000000000, #68 ) ;
#214 =( NAMED_UNIT ( * ) PLANE_ANGLE_UNIT ( ) SI_UNIT ( $, .RADIAN. ) );
#215 = DIRECTION ( 'NONE',  ( -1.000000000000000000, 0.0000000000000000000, -0.0000000000000000000 ) ) ;
#216 = ADVANCED_FACE ( 'NONE', ( #135 ), #194, .F. ) ;
#217 = LINE ( 'NONE', #31, #119 ) ;
#218 = PERSON_AND_ORGANIZATION ( #174, #139 ) ;
#219 = VECTOR ( 'NONE', #183, 1000.000000000000000 ) ;
#220 = CARTESIAN_POINT ( 'NONE',  ( -12.50000000000000000, -12.50000000000000000, 1.000000000000000000 ) ) ;
#221 = ADVANCED_BREP_SHAPE_REPRESENTATION ( 'Web Model 45183_45183', ( #46, #65 ), #1 ) ;
#222 = VECTOR ( 'NONE', #173, 1000.000000000000000 ) ;
#223 = ORIENTED_EDGE ( 'NONE', *, *, #72, .F. ) ;
#224 = CC_DESIGN_PERSON_AND_ORGANIZATION_ASSIGNMENT ( #146, #161, ( #210 ) ) ;
#225 = AXIS2_PLACEMENT_3D ( 'NONE', #144, #111, #215 ) ;
#226 = PRODUCT ( 'Web Model 45183_45183', 'Web Model 45183_45183', '', ( #126 ) ) ;
#227 = SHAPE_DEFINITION_REPRESENTATION ( #19, #221 ) ;
#228 = DIRECTION ( 'NONE',  ( -0.0000000000000000000, -1.000000000000000000, -0.0000000000000000000 ) ) ;
#229 = PLANE ( 'NONE',  #225 ) ;
#230 = APPROVAL_PERSON_ORGANIZATION ( #176, #102, #177 ) ;
#231 = ORIENTED_EDGE ( 'NONE', *, *, #95, .T. ) ;
#232 = CC_DESIGN_DATE_AND_TIME_ASSIGNMENT ( #190, #201, ( #210 ) ) ;
#233 = CARTESIAN_POINT ( 'NONE',  ( -12.50000000000000000, 12.50000000000000000, -1.000000000000000000 ) ) ;
#234 = LINE ( 'NONE', #233, #203 ) ;
#235 = PLANE ( 'NONE',  #82 ) ;
#236 = ORIENTED_EDGE ( 'NONE', *, *, #25, .F. ) ;
#237 = DIRECTION ( 'NONE',  ( 0.0000000000000000000, 0.0000000000000000000, -1.000000000000000000 ) ) ;
ENDSEC;
END-ISO-10303-21;
